  0
SECTION
  2
HEADER
  9
$ACADVER
  1
AC1027
  9
$ACADMAINTVER
 70
   105
  9
$DWGCODEPAGE
  3
ANSI_1252
  9
$AUTHOR
  1
tazwib
  9
$LASTSAVEDBY
  1
tazwib
  9
$REQUIREDVERSIONS
160
                 0
  9
$INSBASE
 10
0.0
 20
0.0
 30
0.0
  9
$EXTMIN
 10
682721.3
 20
246919.124
 30
0.0
  9
$EXTMAX
 10
682764.301
 20
246978.525
 30
0.0
  9
$LIMMIN
 10
682596.136738
 20
246802.160738
  9
$LIMMAX
 10
682889.464262
 20
247095.488262
  9
$ORTHOMODE
 70
     0
  9
$REGENMODE
 70
     1
  9
$FILLMODE
 70
     1
  9
$QTEXTMODE
 70
     0
  9
$MIRRTEXT
 70
     0
  9
$LTSCALE
 40
1.0
  9
$ATTMODE
 70
     1
  9
$TEXTSIZE
 40
0.399984
  9
$TRACEWID
 40
0.05
  9
$TEXTSTYLE
  7
Standard
  9
$CLAYER
  8
TAZ 101-0
  9
$CELTYPE
  6
Continuous
  9
$CECOLOR
 62
    30
  9
$CELTSCALE
 40
1.0
  9
$DISPSILH
 70
     0
  9
$DIMSCALE
 40
1.0
  9
$DIMASZ
 40
0.319987
  9
$DIMEXO
 40
0.119995
  9
$DIMDLI
 40
0.0
  9
$DIMRND
 40
0.0
  9
$DIMDLE
 40
0.0
  9
$DIMEXE
 40
0.119995
  9
$DIMTP
 40
0.0
  9
$DIMTM
 40
0.0
  9
$DIMTXT
 40
0.399984
  9
$DIMCEN
 40
0.09
  9
$DIMTSZ
 40
0.0
  9
$DIMTOL
 70
     0
  9
$DIMLIM
 70
     0
  9
$DIMTIH
 70
     0
  9
$DIMTOH
 70
     0
  9
$DIMSE1
 70
     0
  9
$DIMSE2
 70
     0
  9
$DIMTAD
 70
     1
  9
$DIMZIN
 70
     3
  9
$DIMBLK
  1

  9
$DIMASO
 70
     1
  9
$DIMSHO
 70
     1
  9
$DIMPOST
  1

  9
$DIMAPOST
  1

  9
$DIMALT
 70
     0
  9
$DIMALTD
 70
     2
  9
$DIMALTF
 40
39.370079
  9
$DIMLFAC
 40
1.0
  9
$DIMTOFL
 70
     1
  9
$DIMTVP
 40
0.0
  9
$DIMTIX
 70
     0
  9
$DIMSOXD
 70
     0
  9
$DIMSAH
 70
     0
  9
$DIMBLK1
  1

  9
$DIMBLK2
  1

  9
$DIMSTYLE
  2
Standard
  9
$DIMCLRD
 70
     0
  9
$DIMCLRE
 70
     0
  9
$DIMCLRT
 70
     0
  9
$DIMTFAC
 40
1.0
  9
$DIMGAP
 40
0.199992
  9
$DIMJUST
 70
     0
  9
$DIMSD1
 70
     0
  9
$DIMSD2
 70
     0
  9
$DIMTOLJ
 70
     1
  9
$DIMTZIN
 70
     3
  9
$DIMALTZ
 70
     3
  9
$DIMALTTZ
 70
     3
  9
$DIMUPT
 70
     0
  9
$DIMDEC
 70
     2
  9
$DIMTDEC
 70
     2
  9
$DIMALTU
 70
     2
  9
$DIMALTTD
 70
     2
  9
$DIMTXSTY
  7
1 200   060 0000
  9
$DIMAUNIT
 70
     0
  9
$DIMADEC
 70
     2
  9
$DIMALTRND
 40
0.0
  9
$DIMAZIN
 70
     3
  9
$DIMDSEP
 70
     0
  9
$DIMATFIT
 70
     1
  9
$DIMFRAC
 70
     2
  9
$DIMLDRBLK
  1

  9
$DIMLUNIT
 70
     2
  9
$DIMLWD
 70
    -2
  9
$DIMLWE
 70
    -2
  9
$DIMTMOVE
 70
     0
  9
$DIMFXL
 40
1.0
  9
$DIMFXLON
 70
     0
  9
$DIMJOGANG
 40
0.785398
  9
$DIMTFILL
 70
     0
  9
$DIMTFILLCLR
 70
     0
  9
$DIMARCSYM
 70
     0
  9
$DIMLTYPE
  6

  9
$DIMLTEX1
  6

  9
$DIMLTEX2
  6

  9
$DIMTXTDIRECTION
 70
     0
  9
$LUNITS
 70
     2
  9
$LUPREC
 70
     4
  9
$SKETCHINC
 40
0.1
  9
$FILLETRAD
 40
0.0
  9
$AUNITS
 70
     0
  9
$AUPREC
 70
     4
  9
$MENU
  1
.
  9
$ELEVATION
 40
0.0
  9
$PELEVATION
 40
0.0
  9
$THICKNESS
 40
0.0
  9
$LIMCHECK
 70
     0
  9
$CHAMFERA
 40
0.0
  9
$CHAMFERB
 40
0.0
  9
$CHAMFERC
 40
0.0
  9
$CHAMFERD
 40
0.0
  9
$SKPOLY
 70
     0
  9
$TDCREATE
 40
2454144.861357350
  9
$TDUCREATE
 40
2454144.778024017
  9
$TDUPDATE
 40
2455656.895108565
  9
$TDUUPDATE
 40
2455656.811775231
  9
$TDINDWG
 40
0.0262207523
  9
$TDUSRTIMER
 40
0.0262205671
  9
$USRTIMER
 70
     1
  9
$ANGBASE
 50
0.0
  9
$ANGDIR
 70
     0
  9
$PDMODE
 70
     0
  9
$PDSIZE
 40
0.0
  9
$PLINEWID
 40
0.0
  9
$SPLFRAME
 70
     0
  9
$SPLINETYPE
 70
     6
  9
$SPLINESEGS
 70
     8
  9
$HANDSEED
  5
5402
  9
$SURFTAB1
 70
     6
  9
$SURFTAB2
 70
     6
  9
$SURFTYPE
 70
     6
  9
$SURFU
 70
     6
  9
$SURFV
 70
     6
  9
$UCSBASE
  2

  9
$UCSNAME
  2

  9
$UCSORG
 10
0.0
 20
0.0
 30
0.0
  9
$UCSXDIR
 10
1.0
 20
0.0
 30
0.0
  9
$UCSYDIR
 10
0.0
 20
1.0
 30
0.0
  9
$UCSORTHOREF
  2

  9
$UCSORTHOVIEW
 70
     0
  9
$UCSORGTOP
 10
0.0
 20
0.0
 30
0.0
  9
$UCSORGBOTTOM
 10
0.0
 20
0.0
 30
0.0
  9
$UCSORGLEFT
 10
0.0
 20
0.0
 30
0.0
  9
$UCSORGRIGHT
 10
0.0
 20
0.0
 30
0.0
  9
$UCSORGFRONT
 10
0.0
 20
0.0
 30
0.0
  9
$UCSORGBACK
 10
0.0
 20
0.0
 30
0.0
  9
$PUCSBASE
  2

  9
$PUCSNAME
  2

  9
$PUCSORG
 10
0.0
 20
0.0
 30
0.0
  9
$PUCSXDIR
 10
1.0
 20
0.0
 30
0.0
  9
$PUCSYDIR
 10
0.0
 20
1.0
 30
0.0
  9
$PUCSORTHOREF
  2

  9
$PUCSORTHOVIEW
 70
     0
  9
$PUCSORGTOP
 10
0.0
 20
0.0
 30
0.0
  9
$PUCSORGBOTTOM
 10
0.0
 20
0.0
 30
0.0
  9
$PUCSORGLEFT
 10
0.0
 20
0.0
 30
0.0
  9
$PUCSORGRIGHT
 10
0.0
 20
0.0
 30
0.0
  9
$PUCSORGFRONT
 10
0.0
 20
0.0
 30
0.0
  9
$PUCSORGBACK
 10
0.0
 20
0.0
 30
0.0
  9
$USERI1
 70
     0
  9
$USERI2
 70
     0
  9
$USERI3
 70
     0
  9
$USERI4
 70
     0
  9
$USERI5
 70
     0
  9
$USERR1
 40
0.0
  9
$USERR2
 40
0.0
  9
$USERR3
 40
0.0
  9
$USERR4
 40
0.0
  9
$USERR5
 40
0.0
  9
$WORLDVIEW
 70
     1
  9
$SHADEDGE
 70
     3
  9
$SHADEDIF
 70
    70
  9
$TILEMODE
 70
     1
  9
$MAXACTVP
 70
    64
  9
$PINSBASE
 10
0.0
 20
0.0
 30
0.0
  9
$PLIMCHECK
 70
     0
  9
$PEXTMIN
 10
1.05
 20
0.8
 30
0.0
  9
$PEXTMAX
 10
9.45
 20
7.2
 30
0.0
  9
$PLIMMIN
 10
-0.25
 20
-0.25
  9
$PLIMMAX
 10
10.75
 20
8.25
  9
$UNITMODE
 70
     0
  9
$VISRETAIN
 70
     1
  9
$PLINEGEN
 70
     0
  9
$PSLTSCALE
 70
     0
  9
$TREEDEPTH
 70
  3020
  9
$CMLSTYLE
  2
Standard
  9
$CMLJUST
 70
     0
  9
$CMLSCALE
 40
1.0
  9
$PROXYGRAPHICS
 70
     1
  9
$MEASUREMENT
 70
     0
  9
$CELWEIGHT
370
     0
  9
$ENDCAPS
280
     0
  9
$JOINSTYLE
280
     0
  9
$LWDISPLAY
290
     1
  9
$INSUNITS
 70
     6
  9
$HYPERLINKBASE
  1

  9
$STYLESHEET
  1

  9
$XEDIT
290
     1
  9
$CEPSNTYPE
380
     0
  9
$PSTYLEMODE
290
     1
  9
$FINGERPRINTGUID
  2
{49240289-F2F4-4897-8102-CA59774DD20B}
  9
$VERSIONGUID
  2
{5066CCA6-5121-4C7B-A04C-375F92FA871B}
  9
$EXTNAMES
290
     1
  9
$PSVPSCALE
 40
0.0
  9
$OLESTARTUP
290
     0
  9
$SORTENTS
280
   127
  9
$INDEXCTL
280
     0
  9
$HIDETEXT
280
     1
  9
$XCLIPFRAME
280
     0
  9
$HALOGAP
280
     0
  9
$OBSCOLOR
 70
   257
  9
$OBSLTYPE
280
     0
  9
$INTERSECTIONDISPLAY
280
     0
  9
$INTERSECTIONCOLOR
 70
   257
  9
$DIMASSOC
280
     1
  9
$PROJECTNAME
  1

  9
$CAMERADISPLAY
290
     0
  9
$LENSLENGTH
 40
50.0
  9
$CAMERAHEIGHT
 40
0.0
  9
$STEPSPERSEC
 40
2.0
  9
$STEPSIZE
 40
6.0
  9
$3DDWFPREC
 40
2.0
  9
$PSOLWIDTH
 40
0.25
  9
$PSOLHEIGHT
 40
4.0
  9
$LOFTANG1
 40
1.570796
  9
$LOFTANG2
 40
1.570796
  9
$LOFTMAG1
 40
0.0
  9
$LOFTMAG2
 40
0.0
  9
$LOFTPARAM
 70
     7
  9
$LOFTNORMALS
280
     1
  9
$LATITUDE
 40
37.795
  9
$LONGITUDE
 40
-122.394
  9
$NORTHDIRECTION
 40
0.0
  9
$TIMEZONE
 70
 -8000
  9
$LIGHTGLYPHDISPLAY
280
     1
  9
$TILEMODELIGHTSYNCH
280
     1
  9
$CMATERIAL
347
5394
  9
$SOLIDHIST
280
     1
  9
$SHOWHIST
280
     1
  9
$DWFFRAME
280
     2
  9
$DGNFRAME
280
     0
  9
$REALWORLDSCALE
290
     1
  9
$INTERFERECOLOR
 62
     1
  9
$INTERFEREOBJVS
345
53AB
  9
$INTERFEREVPVS
346
53AC
  9
$CSHADOW
280
     0
  9
$SHADOWPLANELOCATION
 40
0.0
  0
ENDSEC
  0
SECTION
  2
CLASSES
  0
CLASS
  1
ACDBDICTIONARYWDFLT
  2
AcDbDictionaryWithDefault
  3
ObjectDBX Classes
 90
        0
 91
        1
280
     0
281
     0
  0
CLASS
  1
DICTIONARYVAR
  2
AcDbDictionaryVar
  3
ObjectDBX Classes
 90
        0
 91
        8
280
     0
281
     0
  0
CLASS
  1
TABLESTYLE
  2
AcDbTableStyle
  3
ObjectDBX Classes
 90
     4095
 91
        1
280
     0
281
     0
  0
CLASS
  1
MATERIAL
  2
AcDbMaterial
  3
ObjectDBX Classes
 90
     1153
 91
        3
280
     0
281
     0
  0
CLASS
  1
VISUALSTYLE
  2
AcDbVisualStyle
  3
ObjectDBX Classes
 90
     4095
 91
        3
280
     0
281
     0
  0
CLASS
  1
SCALE
  2
AcDbScale
  3
ObjectDBX Classes
 90
     1153
 91
       33
280
     0
281
     0
  0
CLASS
  1
MLEADERSTYLE
  2
AcDbMLeaderStyle
  3
ACDB_MLEADERSTYLE_CLASS
 90
     4095
 91
        0
280
     0
281
     0
  0
CLASS
  1
EXACXREFPANELOBJECT
  2
ExAcXREFPanelObject
  3
EXAC_ESW
 90
     1025
 91
        0
280
     1
281
     0
  0
CLASS
  1
NPOCOLLECTION
  2
AcDbImpNonPersistentObjectsCollection
  3
ObjectDBX Classes
 90
     1153
 91
        0
280
     0
281
     0
  0
CLASS
  1
CELLSTYLEMAP
  2
AcDbCellStyleMap
  3
ObjectDBX Classes
 90
     1152
 91
        1
280
     0
281
     0
  0
CLASS
  1
ACDBSECTIONVIEWSTYLE
  2
AcDbSectionViewStyle
  3
ObjectDBX Classes
 90
     1025
 91
        0
280
     0
281
     0
  0
CLASS
  1
ACDBDETAILVIEWSTYLE
  2
AcDbDetailViewStyle
  3
ObjectDBX Classes
 90
     1025
 91
        0
280
     0
281
     0
  0
CLASS
  1
SORTENTSTABLE
  2
AcDbSortentsTable
  3
ObjectDBX Classes
 90
        0
 91
        1
280
     0
281
     0
  0
ENDSEC
  0
SECTION
  2
TABLES
  0
TABLE
  2
VPORT
  5
5388
330
0
100
AcDbSymbolTable
 70
     2
  0
VPORT
  5
52
330
5388
100
AcDbSymbolTableRecord
100
AcDbViewportTableRecord
  2
*ACTIVE
 70
     0
 10
0.0
 20
0.0
 11
1.0
 21
1.0
 12
682746.356005
 22
246949.579408
 13
0.0
 23
0.0
 14
1.0
 24
1.0
 15
10.0
 25
10.0
 16
0.0
 26
0.0
 36
1.0
 17
0.0
 27
0.0
 37
0.0
 40
82.097842
 41
1.430769
 42
50.0
 43
0.0
 44
0.0
 50
0.0
 51
0.0
 71
     0
 72
   100
 73
     1
 74
     0
 75
     0
 76
     0
 77
     0
 78
     1
281
     0
 65
     1
110
0.0
120
0.0
130
0.0
111
1.0
121
0.0
131
0.0
112
0.0
122
1.0
132
0.0
 79
     0
146
0.0
 60
     3
 61
    10
292
     0
282
     1
141
0.0
142
0.0
 63
     7
421
 16777215
  0
ENDTAB
  0
TABLE
  2
LTYPE
  5
5383
330
0
100
AcDbSymbolTable
 70
     2
  0
LTYPE
  5
5384
330
5383
100
AcDbSymbolTableRecord
100
AcDbLinetypeTableRecord
  2
ByBlock
 70
     0
  3

 72
    65
 73
     0
 40
0.0
  0
LTYPE
  5
5385
330
5383
100
AcDbSymbolTableRecord
100
AcDbLinetypeTableRecord
  2
ByLayer
 70
     0
  3

 72
    65
 73
     0
 40
0.0
  0
LTYPE
  5
5370
330
5383
100
AcDbSymbolTableRecord
100
AcDbLinetypeTableRecord
  2
Continuous
 70
     0
  3
Solid line
 72
    65
 73
     0
 40
0.0
  0
LTYPE
  5
53E4
330
5383
100
AcDbSymbolTableRecord
100
AcDbLinetypeTableRecord
  2
DGN Style 2
 70
     0
  3
Dgn Style 2
 72
    65
 73
     2
 40
1.174631
 49
0.704778
 74
     0
 49
-0.469852
 74
     0
  0
ENDTAB
  0
TABLE
  2
LAYER
  5
537D
102
{ACAD_XDICTIONARY
360
537E
102
}
330
0
100
AcDbSymbolTable
 70
    76
  0
LAYER
  5
5361
102
{ACAD_XDICTIONARY
360
5362
102
}
330
537D
100
AcDbSymbolTableRecord
100
AcDbLayerTableRecord
  2
0
 70
     0
 62
     7
  6
Continuous
370
    -3
390
5364
347
5367
348
0
1001
AcCmTransparency
1071
 33554687
  0
LAYER
  5
2CB1
330
537D
100
AcDbSymbolTableRecord
100
AcDbLayerTableRecord
  2
TAZ 164-0
 70
     0
 62
     7
  6
Continuous
370
     0
390
5364
347
5367
348
0
1001
AcCmTransparency
1071
 33554687
  0
LAYER
  5
7A
330
537D
100
AcDbSymbolTableRecord
100
AcDbLayerTableRecord
  2
TAZ 101-0
 70
     0
 62
     7
  6
Continuous
370
     0
390
5364
347
5367
348
0
1001
AcCmTransparency
1071
 33554687
1001
AcAecLayerStandard
1000

1000
Titelblatt - Format - Planausschnitt
  0
LAYER
  5
7B
330
537D
100
AcDbSymbolTableRecord
100
AcDbLayerTableRecord
  2
TAZ 102-0
 70
     0
 62
     7
  6
Continuous
370
     0
390
5364
347
5367
348
0
1001
AcCmTransparency
1071
 33554687
1001
AcAecLayerStandard
1000

1000
Partner - .....
  0
LAYER
  5
7C
330
537D
100
AcDbSymbolTableRecord
100
AcDbLayerTableRecord
  2
TAZ 103-0
 70
     0
 62
     7
  6
Continuous
370
     0
390
5364
347
5367
348
0
1001
AcCmTransparency
1071
 33554687
1001
AcAecLayerStandard
1000

1000
Ausfertigung für - (Variante, etc.)
  0
LAYER
  5
7D
330
537D
100
AcDbSymbolTableRecord
100
AcDbLayerTableRecord
  2
TAZ 104-0
 70
     0
 62
     7
  6
Continuous
370
     0
390
5364
347
5367
348
0
1001
AcCmTransparency
1071
 33554687
1001
AcAecLayerStandard
1000

1000
Unterschriften - Infoversand
  0
LAYER
  5
7E
330
537D
100
AcDbSymbolTableRecord
100
AcDbLayerTableRecord
  2
TAZ 105-0
 70
     0
 62
   163
  6
Continuous
370
     0
390
5364
347
5367
348
0
1001
AcCmTransparency
1071
 33554687
1001
AcAecLayerStandard
1000

1000
Spruch - Best. Werkleitungen
  0
LAYER
  5
7F
330
537D
100
AcDbSymbolTableRecord
100
AcDbLayerTableRecord
  2
TAZ 106-0
 70
     0
 62
    20
  6
Continuous
370
     0
390
5364
347
5367
348
0
1001
AcCmTransparency
1071
 33554687
1001
AcAecLayerStandard
1000

1000
Spruch - Proj. Kanal
  0
LAYER
  5
80
330
537D
100
AcDbSymbolTableRecord
100
AcDbLayerTableRecord
  2
TAZ 107-0
 70
     0
 62
     1
  6
Continuous
370
     0
390
5364
347
5367
348
0
1001
AcCmTransparency
1071
 33554687
1001
AcAecLayerStandard
1000

1000
Legende - Strassenbau
  0
LAYER
  5
81
330
537D
100
AcDbSymbolTableRecord
100
AcDbLayerTableRecord
  2
TAZ 108-0
 70
     0
 62
     1
  6
Continuous
370
     0
390
5364
347
5367
348
0
1001
AcCmTransparency
1071
 33554687
1001
AcAecLayerStandard
1000

1000
Legende - Funktion
  0
LAYER
  5
82
330
537D
100
AcDbSymbolTableRecord
100
AcDbLayerTableRecord
  2
TAZ 109-0
 70
     0
 62
     1
  6
Continuous
370
     0
390
5364
347
5367
348
0
1001
AcCmTransparency
1071
 33554687
1001
AcAecLayerStandard
1000

1000
Legende - m2 Belagsflächen
  0
LAYER
  5
83
330
537D
100
AcDbSymbolTableRecord
100
AcDbLayerTableRecord
  2
TAZ 110-0
 70
     0
 62
     7
  6
Continuous
370
     0
390
5364
347
5367
348
0
1001
AcCmTransparency
1071
 33554687
1001
AcAecLayerStandard
1000

1000
Parkplatz - Bilanz
  0
LAYER
  5
84
330
537D
100
AcDbSymbolTableRecord
100
AcDbLayerTableRecord
  2
TAZ 111-0
 70
     0
 62
     7
  6
Continuous
370
     0
390
5364
347
5367
348
0
1001
AcCmTransparency
1071
 33554687
1001
AcAecLayerStandard
1000

1000
evtl. Detail
  0
LAYER
  5
85
330
537D
100
AcDbSymbolTableRecord
100
AcDbLayerTableRecord
  2
TAZ 112-0
 70
     0
 62
     7
  6
Continuous
370
     0
390
5364
347
5367
348
0
1001
AcCmTransparency
1071
 33554687
1001
AcAecLayerStandard
1000

1000
Nordpfeil , Str.-Namen
  0
LAYER
  5
86
330
537D
100
AcDbSymbolTableRecord
100
AcDbLayerTableRecord
  2
TAZ 113-0
 70
     0
 62
     7
  6
Continuous
370
     0
390
5364
347
5367
348
0
1001
AcCmTransparency
1071
 33554687
  0
LAYER
  5
87
330
537D
100
AcDbSymbolTableRecord
100
AcDbLayerTableRecord
  2
TAZ 114-0
 70
     0
 62
     7
  6
Continuous
370
     0
390
5364
347
5367
348
0
1001
AcCmTransparency
1071
 33554687
  0
LAYER
  5
88
330
537D
100
AcDbSymbolTableRecord
100
AcDbLayerTableRecord
  2
TAZ 115-0
 70
     0
 62
     7
  6
Continuous
370
     0
390
5364
347
5367
348
0
1001
AcCmTransparency
1071
 33554687
1001
AcAecLayerStandard
1000

1000
Übersichtsplan
  0
LAYER
  5
89
330
537D
100
AcDbSymbolTableRecord
100
AcDbLayerTableRecord
  2
TAZ 116-0
 70
     0
 62
     7
  6
Continuous
370
     0
390
5364
347
5367
348
0
1001
AcCmTransparency
1071
 33554687
  0
LAYER
  5
8A
330
537D
100
AcDbSymbolTableRecord
100
AcDbLayerTableRecord
  2
TAZ 117-0
 70
     0
 62
     7
  6
Continuous
370
     0
390
5364
347
5367
348
0
1001
AcCmTransparency
1071
 33554687
  0
LAYER
  5
8B
330
537D
100
AcDbSymbolTableRecord
100
AcDbLayerTableRecord
  2
TAZ 118-0
 70
     0
 62
     7
  6
Continuous
370
     0
390
5364
347
5367
348
0
1001
AcCmTransparency
1071
 33554687
  0
LAYER
  5
8C
330
537D
100
AcDbSymbolTableRecord
100
AcDbLayerTableRecord
  2
TAZ 119-0
 70
     0
 62
     7
  6
Continuous
370
     0
390
5364
347
5367
348
0
1001
AcCmTransparency
1071
 33554687
1001
AcAecLayerStandard
1000

1000
Format - Rahmen
  0
LAYER
  5
8D
330
537D
100
AcDbSymbolTableRecord
100
AcDbLayerTableRecord
  2
TAZ 120-0
 70
     0
 62
     7
  6
Continuous
370
     0
390
5364
347
5367
348
0
1001
AcCmTransparency
1071
 33554687
1001
AcAecLayerStandard
1000

1000
Entwurf
  0
LAYER
  5
8E
330
537D
100
AcDbSymbolTableRecord
100
AcDbLayerTableRecord
  2
TAZ 121-0
 70
     0
 62
     7
  6
Continuous
370
     0
390
5364
347
5367
348
0
1001
AcCmTransparency
1071
 33554687
  0
LAYER
  5
8F
330
537D
100
AcDbSymbolTableRecord
100
AcDbLayerTableRecord
  2
TAZ 122-0
 70
     0
 62
     7
  6
Continuous
370
     0
390
5364
347
5367
348
0
1001
AcCmTransparency
1071
 33554687
  0
LAYER
  5
90
330
537D
100
AcDbSymbolTableRecord
100
AcDbLayerTableRecord
  2
TAZ 123-0
 70
     0
 62
     7
  6
Continuous
370
     0
390
5364
347
5367
348
0
1001
AcCmTransparency
1071
 33554687
  0
LAYER
  5
91
330
537D
100
AcDbSymbolTableRecord
100
AcDbLayerTableRecord
  2
TAZ 124-0
 70
     0
 62
     7
  6
Continuous
370
     0
390
5364
347
5367
348
0
1001
AcCmTransparency
1071
 33554687
  0
LAYER
  5
92
330
537D
100
AcDbSymbolTableRecord
100
AcDbLayerTableRecord
  2
TAZ 125-0
 70
     0
 62
     7
  6
Continuous
370
     0
390
5364
347
5367
348
0
1001
AcCmTransparency
1071
 33554687
  0
LAYER
  5
93
330
537D
100
AcDbSymbolTableRecord
100
AcDbLayerTableRecord
  2
TAZ 126-0
 70
     0
 62
     7
  6
Continuous
370
     0
390
5364
347
5367
348
0
1001
AcCmTransparency
1071
 33554687
  0
LAYER
  5
94
330
537D
100
AcDbSymbolTableRecord
100
AcDbLayerTableRecord
  2
TAZ 127-0
 70
     0
 62
     7
  6
Continuous
370
     0
390
5364
347
5367
348
0
1001
AcCmTransparency
1071
 33554687
  0
LAYER
  5
95
330
537D
100
AcDbSymbolTableRecord
100
AcDbLayerTableRecord
  2
TAZ 128-0
 70
     0
 62
     7
  6
Continuous
370
     0
390
5364
347
5367
348
0
1001
AcCmTransparency
1071
 33554687
  0
LAYER
  5
96
330
537D
100
AcDbSymbolTableRecord
100
AcDbLayerTableRecord
  2
TAZ 129-0
 70
     0
 62
     7
  6
Continuous
370
     0
390
5364
347
5367
348
0
1001
AcCmTransparency
1071
 33554687
  0
LAYER
  5
97
330
537D
100
AcDbSymbolTableRecord
100
AcDbLayerTableRecord
  2
TAZ 130-0
 70
     0
 62
     7
  6
Continuous
370
     0
390
5364
347
5367
348
0
1001
AcCmTransparency
1071
 33554687
  0
LAYER
  5
98
330
537D
100
AcDbSymbolTableRecord
100
AcDbLayerTableRecord
  2
TAZ 131-0
 70
     0
 62
     7
  6
Continuous
370
     0
390
5364
347
5367
348
0
1001
AcCmTransparency
1071
 33554687
  0
LAYER
  5
99
330
537D
100
AcDbSymbolTableRecord
100
AcDbLayerTableRecord
  2
TAZ 132-0
 70
     0
 62
     7
  6
Continuous
370
     0
390
5364
347
5367
348
0
1001
AcCmTransparency
1071
 33554687
  0
LAYER
  5
9A
330
537D
100
AcDbSymbolTableRecord
100
AcDbLayerTableRecord
  2
TAZ 133-0
 70
     0
 62
     7
  6
Continuous
370
     0
390
5364
347
5367
348
0
1001
AcCmTransparency
1071
 33554687
  0
LAYER
  5
9B
330
537D
100
AcDbSymbolTableRecord
100
AcDbLayerTableRecord
  2
TAZ 134-0
 70
     0
 62
     7
  6
Continuous
370
     0
390
5364
347
5367
348
0
1001
AcCmTransparency
1071
 33554687
  0
LAYER
  5
9C
330
537D
100
AcDbSymbolTableRecord
100
AcDbLayerTableRecord
  2
TAZ 135-0
 70
     0
 62
     7
  6
Continuous
370
     0
390
5364
347
5367
348
0
1001
AcCmTransparency
1071
 33554687
  0
LAYER
  5
9D
330
537D
100
AcDbSymbolTableRecord
100
AcDbLayerTableRecord
  2
TAZ 136-0
 70
     0
 62
     7
  6
Continuous
370
     0
390
5364
347
5367
348
0
1001
AcCmTransparency
1071
 33554687
  0
LAYER
  5
9E
330
537D
100
AcDbSymbolTableRecord
100
AcDbLayerTableRecord
  2
TAZ 137-0
 70
     0
 62
     7
  6
Continuous
370
     0
390
5364
347
5367
348
0
1001
AcCmTransparency
1071
 33554687
  0
LAYER
  5
9F
330
537D
100
AcDbSymbolTableRecord
100
AcDbLayerTableRecord
  2
TAZ 138-0
 70
     0
 62
     7
  6
Continuous
370
     0
390
5364
347
5367
348
0
1001
AcCmTransparency
1071
 33554687
  0
LAYER
  5
A0
330
537D
100
AcDbSymbolTableRecord
100
AcDbLayerTableRecord
  2
TAZ 139-0
 70
     0
 62
     7
  6
Continuous
370
     0
390
5364
347
5367
348
0
1001
AcCmTransparency
1071
 33554687
  0
LAYER
  5
A1
330
537D
100
AcDbSymbolTableRecord
100
AcDbLayerTableRecord
  2
TAZ 140-0
 70
     0
 62
     7
  6
Continuous
370
     0
390
5364
347
5367
348
0
1001
AcCmTransparency
1071
 33554687
  0
LAYER
  5
A2
330
537D
100
AcDbSymbolTableRecord
100
AcDbLayerTableRecord
  2
TAZ 141-0
 70
     0
 62
     7
  6
Continuous
370
     0
390
5364
347
5367
348
0
1001
AcCmTransparency
1071
 33554687
  0
LAYER
  5
A3
330
537D
100
AcDbSymbolTableRecord
100
AcDbLayerTableRecord
  2
TAZ 142-0
 70
     0
 62
     7
  6
Continuous
370
     0
390
5364
347
5367
348
0
1001
AcCmTransparency
1071
 33554687
  0
LAYER
  5
A4
330
537D
100
AcDbSymbolTableRecord
100
AcDbLayerTableRecord
  2
TAZ 143-0
 70
     0
 62
     7
  6
Continuous
370
     0
390
5364
347
5367
348
0
1001
AcCmTransparency
1071
 33554687
  0
LAYER
  5
A5
330
537D
100
AcDbSymbolTableRecord
100
AcDbLayerTableRecord
  2
TAZ 144-0
 70
     0
 62
     7
  6
Continuous
370
     0
390
5364
347
5367
348
0
1001
AcCmTransparency
1071
 33554687
  0
LAYER
  5
A6
330
537D
100
AcDbSymbolTableRecord
100
AcDbLayerTableRecord
  2
TAZ 145-0
 70
     0
 62
     7
  6
Continuous
370
     0
390
5364
347
5367
348
0
1001
AcCmTransparency
1071
 33554687
  0
LAYER
  5
A7
330
537D
100
AcDbSymbolTableRecord
100
AcDbLayerTableRecord
  2
TAZ 146-0
 70
     0
 62
     7
  6
Continuous
370
     0
390
5364
347
5367
348
0
1001
AcCmTransparency
1071
 33554687
  0
LAYER
  5
A8
330
537D
100
AcDbSymbolTableRecord
100
AcDbLayerTableRecord
  2
TAZ 147-0
 70
     0
 62
     7
  6
Continuous
370
     0
390
5364
347
5367
348
0
1001
AcCmTransparency
1071
 33554687
  0
LAYER
  5
A9
330
537D
100
AcDbSymbolTableRecord
100
AcDbLayerTableRecord
  2
TAZ 148-0
 70
     0
 62
     7
  6
Continuous
370
     0
390
5364
347
5367
348
0
1001
AcCmTransparency
1071
 33554687
  0
LAYER
  5
AA
330
537D
100
AcDbSymbolTableRecord
100
AcDbLayerTableRecord
  2
TAZ 149-0
 70
     0
 62
     7
  6
Continuous
370
     0
390
5364
347
5367
348
0
1001
AcCmTransparency
1071
 33554687
  0
LAYER
  5
AB
330
537D
100
AcDbSymbolTableRecord
100
AcDbLayerTableRecord
  2
TAZ 150-0
 70
     0
 62
     7
  6
Continuous
370
     0
390
5364
347
5367
348
0
1001
AcCmTransparency
1071
 33554687
  0
LAYER
  5
AC
330
537D
100
AcDbSymbolTableRecord
100
AcDbLayerTableRecord
  2
TAZ 151-0
 70
     0
 62
     7
  6
Continuous
370
     0
390
5364
347
5367
348
0
1001
AcCmTransparency
1071
 33554687
  0
LAYER
  5
AD
330
537D
100
AcDbSymbolTableRecord
100
AcDbLayerTableRecord
  2
TAZ 152-0
 70
     0
 62
     7
  6
Continuous
370
     0
390
5364
347
5367
348
0
1001
AcCmTransparency
1071
 33554687
  0
LAYER
  5
AE
330
537D
100
AcDbSymbolTableRecord
100
AcDbLayerTableRecord
  2
TAZ 153-0
 70
     0
 62
     7
  6
Continuous
370
     0
390
5364
347
5367
348
0
1001
AcCmTransparency
1071
 33554687
  0
LAYER
  5
AF
330
537D
100
AcDbSymbolTableRecord
100
AcDbLayerTableRecord
  2
TAZ 154-0
 70
     0
 62
     7
  6
Continuous
370
     0
390
5364
347
5367
348
0
1001
AcCmTransparency
1071
 33554687
  0
LAYER
  5
B0
330
537D
100
AcDbSymbolTableRecord
100
AcDbLayerTableRecord
  2
TAZ 155-0
 70
     0
 62
     7
  6
Continuous
370
     0
390
5364
347
5367
348
0
1001
AcCmTransparency
1071
 33554687
  0
LAYER
  5
B1
330
537D
100
AcDbSymbolTableRecord
100
AcDbLayerTableRecord
  2
TAZ 156-0
 70
     0
 62
     7
  6
Continuous
370
     0
390
5364
347
5367
348
0
1001
AcCmTransparency
1071
 33554687
  0
LAYER
  5
B2
330
537D
100
AcDbSymbolTableRecord
100
AcDbLayerTableRecord
  2
TAZ 157-0
 70
     0
 62
     7
  6
Continuous
370
     0
390
5364
347
5367
348
0
1001
AcCmTransparency
1071
 33554687
  0
LAYER
  5
B3
330
537D
100
AcDbSymbolTableRecord
100
AcDbLayerTableRecord
  2
TAZ 158-0
 70
     0
 62
     7
  6
Continuous
370
     0
390
5364
347
5367
348
0
1001
AcCmTransparency
1071
 33554687
  0
LAYER
  5
B4
330
537D
100
AcDbSymbolTableRecord
100
AcDbLayerTableRecord
  2
TAZ 159-0
 70
     0
 62
     7
  6
Continuous
370
     0
390
5364
347
5367
348
0
1001
AcCmTransparency
1071
 33554687
  0
LAYER
  5
B5
330
537D
100
AcDbSymbolTableRecord
100
AcDbLayerTableRecord
  2
TAZ 160-0
 70
     0
 62
     7
  6
Continuous
370
     0
390
5364
347
5367
348
0
1001
AcCmTransparency
1071
 33554687
  0
LAYER
  5
B6
330
537D
100
AcDbSymbolTableRecord
100
AcDbLayerTableRecord
  2
TAZ 161-0
 70
     0
 62
     7
  6
Continuous
370
     0
390
5364
347
5367
348
0
1001
AcCmTransparency
1071
 33554687
  0
LAYER
  5
B7
330
537D
100
AcDbSymbolTableRecord
100
AcDbLayerTableRecord
  2
TAZ 162-0
 70
     0
 62
     7
  6
Continuous
370
     0
390
5364
347
5367
348
0
1001
AcCmTransparency
1071
 33554687
  0
LAYER
  5
B8
330
537D
100
AcDbSymbolTableRecord
100
AcDbLayerTableRecord
  2
TAZ 163-0
 70
     0
 62
     7
  6
Continuous
370
     0
390
5364
347
5367
348
0
1001
AcCmTransparency
1071
 33554687
  0
LAYER
  5
2CB4
330
537D
100
AcDbSymbolTableRecord
100
AcDbLayerTableRecord
  2
TAZ 165-0
 70
     0
 62
     7
  6
Continuous
370
     0
390
5364
347
5367
348
0
1001
AcCmTransparency
1071
 33554687
  0
LAYER
  5
3171
330
537D
100
AcDbSymbolTableRecord
100
AcDbLayerTableRecord
  2
TAZ 107-4
 70
     0
 62
     7
  6
Continuous
370
     0
390
5364
347
5367
348
0
1001
AcCmTransparency
1071
 33554687
1001
AcAecLayerStandard
1000

1000
° Fläche
  0
LAYER
  5
3172
330
537D
100
AcDbSymbolTableRecord
100
AcDbLayerTableRecord
  2
TAZ 108-4
 70
     0
 62
     7
  6
Continuous
370
     0
390
5364
347
5367
348
0
1001
AcCmTransparency
1071
 33554687
1001
AcAecLayerStandard
1000

1000
° Fläche
  0
LAYER
  5
3173
330
537D
100
AcDbSymbolTableRecord
100
AcDbLayerTableRecord
  2
TAZ 107-7
 70
     0
 62
   123
  6
Continuous
370
     0
390
5364
347
5367
348
0
1001
AcCmTransparency
1071
 33554687
1001
AcAecLayerStandard
1000

1000
° Bandierung Baum
  0
LAYER
  5
3174
330
537D
100
AcDbSymbolTableRecord
100
AcDbLayerTableRecord
  2
TAZ 104-4
 70
     0
 62
     7
  6
Continuous
370
     0
390
5364
347
5367
348
0
1001
AcCmTransparency
1071
 33554687
1001
AcAecLayerStandard
1000

1000
Unterschrift - Kanalspezialistin
  0
LAYER
  5
4E55
330
537D
100
AcDbSymbolTableRecord
100
AcDbLayerTableRecord
  2
TAZ 1010
 70
     0
 62
     7
  6
Continuous
370
     0
390
5364
347
5367
348
0
1001
AcCmTransparency
1071
 33554687
1001
AcAecLayerStandard
1000

1000
Planformat
  0
LAYER
  5
4E56
330
537D
100
AcDbSymbolTableRecord
100
AcDbLayerTableRecord
  2
TAZ 1020
 70
     0
 62
     7
  6
Continuous
370
     0
390
5364
347
5367
348
0
1001
AcCmTransparency
1071
 33554687
1001
AcAecLayerStandard
1000

1000
Legende
  0
LAYER
  5
4E57
330
537D
100
AcDbSymbolTableRecord
100
AcDbLayerTableRecord
  2
TAZ 1500
 70
     0
 62
     7
  6
Continuous
370
     0
390
5364
347
5367
348
0
1001
AcCmTransparency
1071
 33554687
1001
AcAecLayerStandard
1000

1000
Farb-Flächen
  0
LAYER
  5
4E58
330
537D
100
AcDbSymbolTableRecord
100
AcDbLayerTableRecord
  2
TAZ 1030
 70
     0
 62
     7
  6
Continuous
370
     0
390
5364
347
5367
348
0
1001
AcCmTransparency
1071
 33554687
1001
AcAecLayerStandard
1000

1000
Farb-Nummer
  0
LAYER
  5
4E59
330
537D
100
AcDbSymbolTableRecord
100
AcDbLayerTableRecord
  2
TAZ 1400
 70
     0
 62
     7
  6
Continuous
370
     0
390
5364
347
5367
348
0
1001
AcCmTransparency
1071
 33554687
1001
AcAecLayerStandard
1000

1000
best. Entwässerung
  0
LAYER
  5
4E5A
330
537D
100
AcDbSymbolTableRecord
100
AcDbLayerTableRecord
  2
TAZ 1470
 70
     0
 62
     7
  6
Continuous
370
     0
390
5364
347
5367
348
0
1001
AcCmTransparency
1071
 33554687
1001
AcAecLayerStandard
1000

1000
Raster
  0
ENDTAB
  0
TABLE
  2
STYLE
  5
5380
330
0
100
AcDbSymbolTable
 70
    38
  0
STYLE
  5
5381
330
5380
100
AcDbSymbolTableRecord
100
AcDbTextStyleTableRecord
  2
Standard
 70
     0
 40
0.0
 41
1.0
 50
0.0
 71
     0
 42
0.399984
  3
txt
  4

  0
STYLE
  5
23C
330
5380
100
AcDbSymbolTableRecord
100
AcDbTextStyleTableRecord
  2
1 200   060 0000
 70
     0
 40
0.3
 41
0.933333
 50
0.0
 71
     0
 42
0.2
  3
arial.ttf
  4

1001
ACAD
1000
Arial
1071
       39
  0
STYLE
  5
23D
330
5380
100
AcDbSymbolTableRecord
100
AcDbTextStyleTableRecord
  2
1 200   080 000
 70
     0
 40
0.4
 41
0.9
 50
0.0
 71
     0
 42
0.2
  3
arial.ttf
  4

1001
ACAD
1000
Arial
1071
       39
  0
STYLE
  5
23E
330
5380
100
AcDbSymbolTableRecord
100
AcDbTextStyleTableRecord
  2
1 200   100 00
 70
     0
 40
0.5
 41
0.9
 50
0.0
 71
     0
 42
0.2
  3
arial.ttf
  4

1001
ACAD
1000
Arial
1071
       39
  0
STYLE
  5
23F
330
5380
100
AcDbSymbolTableRecord
100
AcDbTextStyleTableRecord
  2
1 200   120 0
 70
     0
 40
0.6
 41
0.933333
 50
0.0
 71
     0
 42
0.2
  3
arial.ttf
  4

1001
ACAD
1000
Arial
1071
       39
  0
STYLE
  5
240
330
5380
100
AcDbSymbolTableRecord
100
AcDbTextStyleTableRecord
  2
1 200   140 1
 70
     0
 40
0.7
 41
0.9
 50
0.0
 71
     0
 42
0.2
  3
arial.ttf
  4

1001
ACAD
1000
Arial
1071
       39
  0
STYLE
  5
241
330
5380
100
AcDbSymbolTableRecord
100
AcDbTextStyleTableRecord
  2
1 200   175 2
 70
     0
 40
0.9
 41
0.9
 50
0.0
 71
     0
 42
0.2
  3
arial.ttf
  4

1001
ACAD
1000
Arial
1071
       39
  0
STYLE
  5
242
330
5380
100
AcDbSymbolTableRecord
100
AcDbTextStyleTableRecord
  2
1 200   200 3
 70
     0
 40
1.0
 41
0.9
 50
0.0
 71
     0
 42
0.2
  3
arial.ttf
  4

1001
ACAD
1000
Arial
1071
       39
  0
STYLE
  5
243
330
5380
100
AcDbSymbolTableRecord
100
AcDbTextStyleTableRecord
  2
1 200   240 3
 70
     0
 40
1.2
 41
0.9
 50
0.0
 71
     0
 42
0.2
  3
arial.ttf
  4

1001
ACAD
1000
Arial
1071
       39
  0
STYLE
  5
244
330
5380
100
AcDbSymbolTableRecord
100
AcDbTextStyleTableRecord
  2
1 200   290 4
 70
     0
 40
1.5
 41
0.9
 50
0.0
 71
     0
 42
0.2
  3
arial.ttf
  4

1001
ACAD
1000
Arial
1071
       39
  0
STYLE
  5
245
330
5380
100
AcDbSymbolTableRecord
100
AcDbTextStyleTableRecord
  2
1 50   060 0000
 70
     0
 40
0.075
 41
0.906667
 50
0.0
 71
     0
 42
0.2
  3
arial.ttf
  4

1001
ACAD
1000
Arial
1071
       39
  0
STYLE
  5
246
330
5380
100
AcDbSymbolTableRecord
100
AcDbTextStyleTableRecord
  2
1 50   080 000
 70
     0
 40
0.1
 41
0.9
 50
0.0
 71
     0
 42
0.2
  3
arial.ttf
  4

1001
ACAD
1000
Arial
1071
       39
  0
STYLE
  5
247
330
5380
100
AcDbSymbolTableRecord
100
AcDbTextStyleTableRecord
  2
1 50   100 00
 70
     0
 40
0.125
 41
0.88
 50
0.0
 71
     0
 42
0.2
  3
arial.ttf
  4

1001
ACAD
1000
Arial
1071
       39
  0
STYLE
  5
248
330
5380
100
AcDbSymbolTableRecord
100
AcDbTextStyleTableRecord
  2
1 50   120 0
 70
     0
 40
0.15
 41
0.9
 50
0.0
 71
     0
 42
0.2
  3
arial.ttf
  4

1001
ACAD
1000
Arial
1071
       39
  0
STYLE
  5
249
330
5380
100
AcDbSymbolTableRecord
100
AcDbTextStyleTableRecord
  2
1 50   140 1
 70
     0
 40
0.175
 41
0.857143
 50
0.0
 71
     0
 42
0.2
  3
arial.ttf
  4

1001
ACAD
1000
Arial
1071
       39
  0
STYLE
  5
24A
330
5380
100
AcDbSymbolTableRecord
100
AcDbTextStyleTableRecord
  2
1 50   175 2
 70
     0
 40
0.225
 41
0.888889
 50
0.0
 71
     0
 42
0.2
  3
arial.ttf
  4

1001
ACAD
1000
Arial
1071
       39
  0
STYLE
  5
24B
330
5380
100
AcDbSymbolTableRecord
100
AcDbTextStyleTableRecord
  2
1 50   200 3
 70
     0
 40
0.25
 41
0.9
 50
0.0
 71
     0
 42
0.2
  3
arial.ttf
  4

1001
ACAD
1000
Arial
1071
       39
  0
STYLE
  5
24C
330
5380
100
AcDbSymbolTableRecord
100
AcDbTextStyleTableRecord
  2
1 50   240 3
 70
     0
 40
0.3
 41
0.9
 50
0.0
 71
     0
 42
0.2
  3
arial.ttf
  4

1001
ACAD
1000
Arial
1071
       39
  0
STYLE
  5
24D
330
5380
100
AcDbSymbolTableRecord
100
AcDbTextStyleTableRecord
  2
1 50   290 4
 70
     0
 40
0.375
 41
0.893333
 50
0.0
 71
     0
 42
0.2
  3
arial.ttf
  4

1001
ACAD
1000
Arial
1071
       39
  0
STYLE
  5
24E
330
5380
100
AcDbSymbolTableRecord
100
AcDbTextStyleTableRecord
  2
1 500   060 0000
 70
     0
 40
0.75
 41
0.906667
 50
0.0
 71
     0
 42
0.2
  3
arial.ttf
  4

1001
ACAD
1000
Arial
1071
       39
  0
STYLE
  5
24F
330
5380
100
AcDbSymbolTableRecord
100
AcDbTextStyleTableRecord
  2
1 500   080 000
 70
     0
 40
1.0
 41
0.9
 50
0.0
 71
     0
 42
0.2
  3
arial.ttf
  4

1001
ACAD
1000
Arial
1071
       39
  0
STYLE
  5
250
330
5380
100
AcDbSymbolTableRecord
100
AcDbTextStyleTableRecord
  2
1 500   100 00
 70
     0
 40
1.25
 41
0.88
 50
0.0
 71
     0
 42
0.2
  3
arial.ttf
  4

1001
ACAD
1000
Arial
1071
       39
  0
STYLE
  5
251
330
5380
100
AcDbSymbolTableRecord
100
AcDbTextStyleTableRecord
  2
1 500   120 0
 70
     0
 40
1.5
 41
0.9
 50
0.0
 71
     0
 42
0.2
  3
arial.ttf
  4

1001
ACAD
1000
Arial
1071
       39
  0
STYLE
  5
252
330
5380
100
AcDbSymbolTableRecord
100
AcDbTextStyleTableRecord
  2
1 500   140 1
 70
     0
 40
1.75
 41
0.857143
 50
0.0
 71
     0
 42
0.2
  3
arial.ttf
  4

1001
ACAD
1000
Arial
1071
       39
  0
STYLE
  5
253
330
5380
100
AcDbSymbolTableRecord
100
AcDbTextStyleTableRecord
  2
1 500   175 2
 70
     0
 40
2.25
 41
0.888889
 50
0.0
 71
     0
 42
0.2
  3
arial.ttf
  4

1001
ACAD
1000
Arial
1071
       39
  0
STYLE
  5
254
330
5380
100
AcDbSymbolTableRecord
100
AcDbTextStyleTableRecord
  2
1 500   200 3
 70
     0
 40
2.5
 41
0.9
 50
0.0
 71
     0
 42
0.2
  3
arial.ttf
  4

1001
ACAD
1000
Arial
1071
       39
  0
STYLE
  5
255
330
5380
100
AcDbSymbolTableRecord
100
AcDbTextStyleTableRecord
  2
1 500   240 3
 70
     0
 40
3.0
 41
0.9
 50
0.0
 71
     0
 42
0.2
  3
arial.ttf
  4

1001
ACAD
1000
Arial
1071
       39
  0
STYLE
  5
256
330
5380
100
AcDbSymbolTableRecord
100
AcDbTextStyleTableRecord
  2
1 500   290 4
 70
     0
 40
3.75
 41
0.893333
 50
0.0
 71
     0
 42
0.2
  3
arial.ttf
  4

1001
ACAD
1000
Arial
1071
       39
  0
STYLE
  5
257
330
5380
100
AcDbSymbolTableRecord
100
AcDbTextStyleTableRecord
  2
1 20   060 0000
 70
     0
 40
0.03
 41
0.933333
 50
0.0
 71
     0
 42
0.2
  3
arial.ttf
  4

1001
ACAD
1000
Arial
1071
       39
  0
STYLE
  5
258
330
5380
100
AcDbSymbolTableRecord
100
AcDbTextStyleTableRecord
  2
1 20   080 000
 70
     0
 40
0.04
 41
0.9
 50
0.0
 71
     0
 42
0.2
  3
arial.ttf
  4

1001
ACAD
1000
Arial
1071
       39
  0
STYLE
  5
259
330
5380
100
AcDbSymbolTableRecord
100
AcDbTextStyleTableRecord
  2
1 20   100 00
 70
     0
 40
0.05
 41
0.9
 50
0.0
 71
     0
 42
0.2
  3
arial.ttf
  4

1001
ACAD
1000
Arial
1071
       39
  0
STYLE
  5
25A
330
5380
100
AcDbSymbolTableRecord
100
AcDbTextStyleTableRecord
  2
1 20   120 0
 70
     0
 40
0.06
 41
0.933333
 50
0.0
 71
     0
 42
0.2
  3
arial.ttf
  4

1001
ACAD
1000
Arial
1071
       39
  0
STYLE
  5
25B
330
5380
100
AcDbSymbolTableRecord
100
AcDbTextStyleTableRecord
  2
1 20   140 1
 70
     0
 40
0.07
 41
0.9
 50
0.0
 71
     0
 42
0.2
  3
arial.ttf
  4

1001
ACAD
1000
Arial
1071
       39
  0
STYLE
  5
25C
330
5380
100
AcDbSymbolTableRecord
100
AcDbTextStyleTableRecord
  2
1 20   175 2
 70
     0
 40
0.09
 41
0.9
 50
0.0
 71
     0
 42
0.2
  3
arial.ttf
  4

1001
ACAD
1000
Arial
1071
       39
  0
STYLE
  5
25D
330
5380
100
AcDbSymbolTableRecord
100
AcDbTextStyleTableRecord
  2
1 20   200 3
 70
     0
 40
0.1
 41
0.9
 50
0.0
 71
     0
 42
0.2
  3
arial.ttf
  4

1001
ACAD
1000
Arial
1071
       39
  0
STYLE
  5
25E
330
5380
100
AcDbSymbolTableRecord
100
AcDbTextStyleTableRecord
  2
1 20   240 3
 70
     0
 40
0.12
 41
0.9
 50
0.0
 71
     0
 42
0.2
  3
arial.ttf
  4

1001
ACAD
1000
Arial
1071
       39
  0
STYLE
  5
25F
330
5380
100
AcDbSymbolTableRecord
100
AcDbTextStyleTableRecord
  2
1 20   290 4
 70
     0
 40
0.15
 41
0.9
 50
0.0
 71
     0
 42
0.2
  3
arial.ttf
  4

1001
ACAD
1000
Arial
1071
       39
  0
STYLE
  5
53E8
330
5380
100
AcDbSymbolTableRecord
100
AcDbTextStyleTableRecord
  2
Style-Arial
 70
     0
 40
0.0
 41
1.0
 50
0.0
 71
     0
 42
0.399984
  3
arial.ttf
  4

1001
ACAD
1000
Arial
1071
       39
  0
ENDTAB
  0
TABLE
  2
VIEW
  5
5386
330
0
100
AcDbSymbolTable
 70
     0
  0
ENDTAB
  0
TABLE
  2
UCS
  5
5387
330
0
100
AcDbSymbolTable
 70
     0
  0
ENDTAB
  0
TABLE
  2
APPID
  5
538C
330
0
100
AcDbSymbolTable
 70
     4
  0
APPID
  5
538D
330
538C
100
AcDbSymbolTableRecord
100
AcDbRegAppTableRecord
  2
ACAD
 70
     0
  0
APPID
  5
537C
330
538C
100
AcDbSymbolTableRecord
100
AcDbRegAppTableRecord
  2
ACAD_PSEXT
 70
     0
  0
APPID
  5
53D0
330
538C
100
AcDbSymbolTableRecord
100
AcDbRegAppTableRecord
  2
AcCmTransparency
 70
     0
  0
APPID
  5
53D1
330
538C
100
AcDbSymbolTableRecord
100
AcDbRegAppTableRecord
  2
AcAecLayerStandard
 70
     0
  0
ENDTAB
  0
TABLE
  2
DIMSTYLE
  5
538E
330
0
100
AcDbSymbolTable
 70
     1
100
AcDbDimStyleTable
 71
     1
340
538F
  0
DIMSTYLE
105
538F
330
538E
100
AcDbSymbolTableRecord
100
AcDbDimStyleTableRecord
  2
Standard
 70
     0
340
5381
  0
ENDTAB
  0
TABLE
  2
BLOCK_RECORD
  5
535E
330
0
100
AcDbSymbolTable
 70
     4
  0
BLOCK_RECORD
  5
535F
102
{ACAD_XDICTIONARY
360
53F2
102
}
330
535E
100
AcDbSymbolTableRecord
100
AcDbBlockTableRecord
  2
*Model_Space
340
5372
 70
     0
280
     1
281
     0
  0
BLOCK_RECORD
  5
5376
330
535E
100
AcDbSymbolTableRecord
100
AcDbBlockTableRecord
  2
*Paper_Space
340
5379
 70
     0
280
     1
281
     0
  0
BLOCK_RECORD
  5
53E5
330
535E
100
AcDbSymbolTableRecord
100
AcDbBlockTableRecord
  2
*U0
340
0
102
{BLKREFS
331
5296
102
}
 70
     0
280
     1
281
     0
  0
BLOCK_RECORD
  5
53E9
330
535E
100
AcDbSymbolTableRecord
100
AcDbBlockTableRecord
  2
*U1
340
0
102
{BLKREFS
331
529B
102
}
 70
     0
280
     1
281
     0
  0
BLOCK_RECORD
  5
53EC
330
535E
100
AcDbSymbolTableRecord
100
AcDbBlockTableRecord
  2
*U2
340
0
102
{BLKREFS
331
52C7
102
}
 70
     0
280
     1
281
     0
  0
BLOCK_RECORD
  5
53EF
330
535E
100
AcDbSymbolTableRecord
100
AcDbBlockTableRecord
  2
*U3
340
0
102
{BLKREFS
331
5330
102
}
 70
     0
280
     1
281
     0
  0
ENDTAB
  0
ENDSEC
  0
SECTION
  2
BLOCKS
  0
BLOCK
  5
5360
330
535F
100
AcDbEntity
  8
0
100
AcDbBlockBegin
  2
*Model_Space
 70
     0
 10
0.0
 20
0.0
 30
0.0
  3
*Model_Space
  1

  0
ENDBLK
  5
5371
330
535F
100
AcDbEntity
  8
0
100
AcDbBlockEnd
  0
BLOCK
  5
5377
330
5376
100
AcDbEntity
 67
     1
  8
0
100
AcDbBlockBegin
  2
*Paper_Space
 70
     0
 10
0.0
 20
0.0
 30
0.0
  3
*Paper_Space
  1

  0
ENDBLK
  5
5378
330
5376
100
AcDbEntity
 67
     1
  8
0
100
AcDbBlockEnd
  0
BLOCK
  5
53E6
330
53E5
100
AcDbEntity
  8
0
 62
    30
370
     0
100
AcDbBlockBegin
  2
*U0
 70
     1
 10
0.0
 20
0.0
 30
0.0
  3
*U0
  1

  0
LWPOLYLINE
  5
5297
330
53E5
100
AcDbEntity
  8
TAZ 106-0
  6
Continuous
 62
    30
370
    40
100
AcDbPolyline
 90
        5
 70
   129
 43
0.0
 10
-8.807519
 20
-2.538289
 10
7.233495
 20
5.630055
 10
8.808083
 20
2.537876
 10
-7.232932
 20
-5.630469
 10
-8.807519
 20
-2.538289
  0
MTEXT
  5
5298
330
53E5
100
AcDbEntity
  8
TAZ 106-0
  6
Continuous
 62
    30
370
     0
100
AcDbMText
 10
-7.421566
 20
-3.027667
 30
0.0
 40
0.399984
 41
0.0
 46
0.0
 71
     1
 72
     1
  1
\H1x;\W0.899991;\T1.163;Ausser Betrieb genommene Kanäle auffüllen oder abbrechen,\Pbei Kontrollschächten Boden auf- und Konus abbrechen\P
  7
Style-Arial
 11
0.891118
 21
0.453772
 31
0.0
 73
     2
 44
1.35603
  0
ENDBLK
  5
53E7
330
53E5
100
AcDbEntity
  8
0
 62
    30
370
     0
100
AcDbBlockEnd
  0
BLOCK
  5
53EA
330
53E9
100
AcDbEntity
  8
0
 62
    30
370
     0
100
AcDbBlockBegin
  2
*U1
 70
     1
 10
0.0
 20
0.0
 30
0.0
  3
*U1
  1

  0
LWPOLYLINE
  5
529C
330
53E9
100
AcDbEntity
  8
TAZ 105-0
  6
Continuous
 62
   163
370
    40
100
AcDbPolyline
 90
        5
 70
   129
 43
0.0
 10
-8.807879
 20
-2.538223
 10
7.233136
 20
5.630121
 10
8.807724
 20
2.537942
 10
-7.233291
 20
-5.630402
 10
-8.807879
 20
-2.538223
  0
MTEXT
  5
529D
330
53E9
100
AcDbEntity
  8
TAZ 105-0
  6
Continuous
 62
   163
370
     0
100
AcDbMText
 10
-7.999685
 20
-2.67211
 30
0.0
 40
0.379979
 41
0.0
 46
0.0
 71
     1
 72
     1
  3
\H1x;\W0.900005;\T1.163;Für die Richtigkeit und Vollständigkeit der eingetragenen Leitungen\Poder unterirdischen Anlagen leistet das Tiefbauamt keine Gewähr.\PDie genaue Lage der eingetragenen Werkleitungen ist vor Beginn\Pder Bauarbeiten durch den U
  1
nternehmer bei den Werken zu erheben.\P
  7
Style-Arial
 11
0.891118
 21
0.453772
 31
0.0
 73
     2
 44
1.13853
  0
ENDBLK
  5
53EB
330
53E9
100
AcDbEntity
  8
0
 62
    30
370
     0
100
AcDbBlockEnd
  0
BLOCK
  5
53ED
330
53EC
100
AcDbEntity
  8
0
 62
    30
370
     0
100
AcDbBlockBegin
  2
*U2
 70
     1
 10
0.0
 20
0.0
 30
0.0
  3
*U2
  1

  0
LINE
  5
52C8
330
53EC
100
AcDbEntity
  8
TAZ 101-0
  6
Continuous
 62
     7
370
     0
100
AcDbLine
 10
-0.146266
 20
-2.347847
 30
0.0
 11
-0.226266
 21
-2.347847
 31
0.0
  0
LINE
  5
52C9
330
53EC
100
AcDbEntity
  8
TAZ 101-0
  6
Continuous
 62
     7
370
     0
100
AcDbLine
 10
-1.29121
 20
2.308874
 30
0.0
 11
1.291463
 21
2.308874
 31
0.0
  0
LINE
  5
52CA
330
53EC
100
AcDbEntity
  8
TAZ 101-0
  6
Continuous
 62
     7
370
     0
100
AcDbLine
 10
-1.262538
 20
1.824623
 30
0.0
 11
1.262792
 21
1.824623
 31
0.0
  0
LINE
  5
52CB
330
53EC
100
AcDbEntity
  8
TAZ 101-0
  6
Continuous
 62
     7
370
     0
100
AcDbLine
 10
-1.452627
 20
0.856121
 30
0.0
 11
1.45288
 21
0.856121
 31
0.0
  0
LINE
  5
52CC
330
53EC
100
AcDbEntity
  8
TAZ 101-0
  6
Continuous
 62
     7
370
     0
100
AcDbLine
 10
-1.243424
 20
1.501789
 30
0.0
 11
1.243678
 21
1.501789
 31
0.0
  0
LINE
  5
52CD
330
53EC
100
AcDbEntity
  8
TAZ 101-0
  6
Continuous
 62
     7
370
     0
100
AcDbLine
 10
-1.22431
 20
1.178955
 30
0.0
 11
1.224564
 21
1.178955
 31
0.0
  0
LINE
  5
52CE
330
53EC
100
AcDbEntity
  8
TAZ 101-0
  6
Continuous
 62
     7
370
     0
100
AcDbLine
 10
-0.72625
 20
2.308874
 30
0.0
 11
-0.72625
 21
1.501789
 31
0.0
  0
LINE
  5
52CF
330
53EC
100
AcDbEntity
  8
TAZ 101-0
  6
Continuous
 62
     7
370
     0
100
AcDbLine
 10
-0.968376
 20
2.308874
 30
0.0
 11
-0.968376
 21
1.98604
 31
0.0
  0
LINE
  5
52D0
330
53EC
100
AcDbEntity
  8
TAZ 101-0
  6
Continuous
 62
     7
370
     0
100
AcDbLine
 10
-0.484124
 20
2.308874
 30
0.0
 11
-0.484124
 21
1.98604
 31
0.0
  0
LINE
  5
52D1
330
53EC
100
AcDbEntity
  8
TAZ 101-0
  6
Continuous
 62
     7
370
     0
100
AcDbLine
 10
-0.241999
 20
2.308874
 30
0.0
 11
-0.241999
 21
1.501789
 31
0.0
  0
LINE
  5
52D2
330
53EC
100
AcDbEntity
  8
TAZ 101-0
  6
Continuous
 62
     7
370
     0
100
AcDbLine
 10
0.000127
 20
2.308874
 30
0.0
 11
0.000127
 21
1.98604
 31
0.0
  0
LINE
  5
52D3
330
53EC
100
AcDbEntity
  8
TAZ 101-0
  6
Continuous
 62
     7
370
     0
100
AcDbLine
 10
0.242252
 20
2.308874
 30
0.0
 11
0.242252
 21
1.501789
 31
0.0
  0
LINE
  5
52D4
330
53EC
100
AcDbEntity
  8
TAZ 101-0
  6
Continuous
 62
     7
370
     0
100
AcDbLine
 10
0.484378
 20
2.308874
 30
0.0
 11
0.484378
 21
1.98604
 31
0.0
  0
LINE
  5
52D5
330
53EC
100
AcDbEntity
  8
TAZ 101-0
  6
Continuous
 62
     7
370
     0
100
AcDbLine
 10
0.726503
 20
2.308874
 30
0.0
 11
0.726503
 21
1.501789
 31
0.0
  0
LINE
  5
52D6
330
53EC
100
AcDbEntity
  8
TAZ 101-0
  6
Continuous
 62
     7
370
     0
100
AcDbLine
 10
0.968629
 20
2.308874
 30
0.0
 11
0.968629
 21
1.98604
 31
0.0
  0
LINE
  5
52D7
330
53EC
100
AcDbEntity
  8
TAZ 101-0
  6
Continuous
 62
     7
370
     0
100
AcDbLine
 10
-1.29121
 20
2.308874
 30
0.0
 11
-1.22431
 21
1.178955
 31
0.0
  0
LINE
  5
52D8
330
53EC
100
AcDbEntity
  8
TAZ 101-0
  6
Continuous
 62
     7
370
     0
100
AcDbLine
 10
1.224564
 20
1.178955
 30
0.0
 11
1.291463
 21
2.308874
 31
0.0
  0
ARC
  5
52D9
330
53EC
100
AcDbEntity
  8
TAZ 101-0
  6
Continuous
 62
     7
370
     0
100
AcDbCircle
 10
0.12633
 20
-1.000175
 30
0.0
 40
1.452753224918288
100
AcDbArc
 50
183.791447
 51
246.988067
  0
ARC
  5
52DA
330
53EC
100
AcDbEntity
  8
TAZ 101-0
  6
Continuous
 62
     7
370
     0
100
AcDbCircle
 10
-0.126077
 20
-1.000175
 30
0.0
 40
1.452753224907352
100
AcDbArc
 50
293.614738
 51
356.208553
  0
ARC
  5
52DB
330
53EC
100
AcDbEntity
  8
TAZ 101-0
  6
Continuous
 62
     7
370
     0
100
AcDbCircle
 10
0.000127
 20
-1.297319
 30
0.0
 40
1.129919176080838
100
AcDbArc
 50
246.988067
 51
293.011933
  0
LINE
  5
52DC
330
53EC
100
AcDbEntity
  8
TAZ 101-0
  6
Continuous
 62
     7
370
     0
100
AcDbLine
 10
-1.452627
 20
0.856121
 30
0.0
 11
1.151993
 21
-1.690849
 31
0.0
  0
LINE
  5
52DD
330
53EC
100
AcDbEntity
  8
TAZ 101-0
  6
Continuous
 62
     7
370
     0
100
AcDbLine
 10
-0.835246
 20
-2.089148
 30
0.0
 11
0.835499
 21
-2.089148
 31
0.0
  0
LINE
  5
52DE
330
53EC
100
AcDbEntity
  8
TAZ 101-0
  6
Continuous
 62
     7
370
     0
100
AcDbLine
 10
-1.054068
 20
-1.847023
 30
0.0
 11
1.054322
 21
-1.847023
 31
0.0
  0
LINE
  5
52DF
330
53EC
100
AcDbEntity
  8
TAZ 101-0
  6
Continuous
 62
     7
370
     0
100
AcDbLine
 10
-1.19458
 20
-1.604897
 30
0.0
 11
1.064096
 21
-1.604897
 31
0.0
  0
LINE
  5
52E0
330
53EC
100
AcDbEntity
  8
TAZ 101-0
  6
Continuous
 62
     7
370
     0
100
AcDbLine
 10
-0.455564
 20
-2.331274
 30
0.0
 11
0.455817
 21
-2.331274
 31
0.0
  0
LINE
  5
52E1
330
53EC
100
AcDbEntity
  8
TAZ 101-0
  6
Continuous
 62
     7
370
     0
100
AcDbLine
 10
-1.280445
 20
-1.362772
 30
0.0
 11
0.81649
 21
-1.362772
 31
0.0
  0
LINE
  5
52E2
330
53EC
100
AcDbEntity
  8
TAZ 101-0
  6
Continuous
 62
     7
370
     0
100
AcDbLine
 10
-1.32142
 20
-1.120646
 30
0.0
 11
0.568884
 21
-1.120646
 31
0.0
  0
LINE
  5
52E3
330
53EC
100
AcDbEntity
  8
TAZ 101-0
  6
Continuous
 62
     7
370
     0
100
AcDbLine
 10
-1.337672
 20
-0.878521
 30
0.0
 11
0.321278
 21
-0.878521
 31
0.0
  0
LINE
  5
52E4
330
53EC
100
AcDbEntity
  8
TAZ 101-0
  6
Continuous
 62
     7
370
     0
100
AcDbLine
 10
-1.353718
 20
-0.636395
 30
0.0
 11
0.073672
 21
-0.636395
 31
0.0
  0
LINE
  5
52E5
330
53EC
100
AcDbEntity
  8
TAZ 101-0
  6
Continuous
 62
     7
370
     0
100
AcDbLine
 10
-1.369763
 20
-0.39427
 30
0.0
 11
-0.173934
 21
-0.39427
 31
0.0
  0
LINE
  5
52E6
330
53EC
100
AcDbEntity
  8
TAZ 101-0
  6
Continuous
 62
     7
370
     0
100
AcDbLine
 10
-1.276042
 20
-0.152144
 30
0.0
 11
-0.42154
 21
-0.152144
 31
0.0
  0
LINE
  5
52E7
330
53EC
100
AcDbEntity
  8
TAZ 101-0
  6
Continuous
 62
     7
370
     0
100
AcDbLine
 10
-1.135295
 20
0.089982
 30
0.0
 11
-0.669146
 21
0.089982
 31
0.0
  0
LINE
  5
52E8
330
53EC
100
AcDbEntity
  8
TAZ 101-0
  6
Continuous
 62
     7
370
     0
100
AcDbLine
 10
-1.4179
 20
0.332107
 30
0.0
 11
-0.916752
 21
0.332107
 31
0.0
  0
LINE
  5
52E9
330
53EC
100
AcDbEntity
  8
TAZ 101-0
  6
Continuous
 62
     7
370
     0
100
AcDbLine
 10
-1.433946
 20
0.574233
 30
0.0
 11
-1.164358
 21
0.574233
 31
0.0
  0
LINE
  5
52EA
330
53EC
100
AcDbEntity
  8
TAZ 101-0
  6
Continuous
 62
     7
370
     0
100
AcDbLine
 10
-1.452627
 20
0.856121
 30
0.0
 11
-1.415458
 21
0.295254
 31
0.0
  0
LINE
  5
52EB
330
53EC
100
AcDbEntity
  8
TAZ 101-0
  6
Continuous
 62
     7
370
     0
100
AcDbLine
 10
-1.383482
 20
-0.187252
 30
0.0
 11
-1.323244
 21
-1.096238
 31
0.0
  0
ARC
  5
52EC
330
53EC
100
AcDbEntity
  8
TAZ 101-0
  6
Continuous
 62
     7
370
     0
100
AcDbCircle
 10
-2.747889
 20
1.605777
 30
0.0
 40
0.6866008844506569
100
AcDbArc
 50
107.746104
 51
233.374424
  0
LINE
  5
52ED
330
53EC
100
AcDbEntity
  8
TAZ 101-0
  6
Continuous
 62
     7
370
     0
100
AcDbLine
 10
-3.157503
 20
1.054745
 30
0.0
 11
-1.513272
 21
-0.132201
 31
0.0
  0
LINE
  5
52EE
330
53EC
100
AcDbEntity
  8
TAZ 101-0
  6
Continuous
 62
     7
370
     0
100
AcDbLine
 10
-1.482745
 20
0.285018
 30
0.0
 11
-2.224515
 21
0.802564
 31
0.0
  0
LINE
  5
52EF
330
53EC
100
AcDbEntity
  8
TAZ 101-0
  6
Continuous
 62
     7
370
     0
100
AcDbLine
 10
-2.344489
 20
2.337078
 30
0.0
 11
-2.341213
 21
2.180699
 31
0.0
  0
SPLINE
  5
52F0
330
53EC
100
AcDbEntity
  8
TAZ 101-0
  6
Continuous
 62
     7
370
     0
100
AcDbSpline
210
0.0
220
0.0
230
1.0
 70
     8
 71
     3
 72
    17
 73
    13
 74
     0
 42
0.000000001
 43
0.0000000001
 40
0.0
 40
0.0
 40
0.0
 40
0.0
 40
0.3842689589738053
 40
0.3842689589738053
 40
0.3842689589738053
 40
0.6686166012435294
 40
0.6686166012435294
 40
0.6686166012435294
 40
0.8617888992325928
 40
0.8617888992325928
 40
0.8617888992325928
 40
1.0
 40
1.0
 40
1.0
 40
1.0
 10
-2.344488572096452
 20
2.33707766002044
 30
0.0
 10
-2.424068868858739
 20
2.336325587471947
 30
0.0
 10
-2.503649165155366
 20
2.335573515389114
 30
0.0
 10
-2.583229461684823
 20
2.334821442724205
 30
0.0
 10
-2.642116522882133
 20
2.334264931385405
 30
0.0
 10
-2.700165762100368
 20
2.321740322164259
 30
0.0
 10
-2.758410393260419
 20
2.311939085484482
 30
0.0
 10
-2.797979032387956
 20
2.305280590313486
 30
0.0
 10
-2.838070288067683
 20
2.30047775292769
 30
0.0
 10
-2.875920616555958
 20
2.287520066369324
 30
0.0
 10
-2.903001806000247
 20
2.278249088325537
 30
0.0
 10
-2.930082995211705
 20
2.268978110048919
 30
0.0
 10
-2.957164184190332
 20
2.259707132005132
 30
0.0
  0
LINE
  5
52F1
330
53EC
100
AcDbEntity
  8
TAZ 101-0
  6
Continuous
 62
     7
370
     0
100
AcDbLine
 10
-1.960815
 20
1.971836
 30
0.0
 11
-2.384791
 21
1.902572
 31
0.0
  0
ARC
  5
52F2
330
53EC
100
AcDbEntity
  8
TAZ 101-0
  6
Continuous
 62
     7
370
     0
100
AcDbCircle
 10
2.39177
 20
2.031824
 30
0.0
 40
0.1294398613169319
210
0.0
220
0.0
230
-1.0
100
AcDbArc
 50
266.90928
 51
82.173028
  0
LINE
  5
52F3
330
53EC
100
AcDbEntity
  8
TAZ 101-0
  6
Continuous
 62
     7
370
     0
100
AcDbLine
 10
-2.409398
 20
2.160058
 30
0.0
 11
-2.341213
 21
2.180699
 31
0.0
  0
LINE
  5
52F4
330
53EC
100
AcDbEntity
  8
TAZ 101-0
  6
Continuous
 62
     7
370
     0
100
AcDbLine
 10
-2.870621
 20
2.42761
 30
0.0
 11
-2.862216
 21
1.895316
 31
0.0
  0
CIRCLE
  5
52F5
330
53EC
100
AcDbEntity
  8
TAZ 101-0
  6
Continuous
 62
     7
370
     0
100
AcDbCircle
 10
-2.794617
 20
2.234814
 30
0.0
 40
0.0678694521034669
  0
ARC
  5
52F6
330
53EC
100
AcDbEntity
  8
TAZ 101-0
  6
Continuous
 62
     7
370
     0
100
AcDbCircle
 10
-2.643161
 20
1.896873
 30
0.0
 40
0.2190600907133006
100
AcDbArc
 50
180.40723
 51
279.974596
  0
LINE
  5
52F7
330
53EC
100
AcDbEntity
  8
TAZ 101-0
  6
Continuous
 62
     7
370
     0
100
AcDbLine
 10
-2.605217
 20
1.681124
 30
0.0
 11
-2.331328
 21
1.708819
 31
0.0
  0
ARC
  5
52F8
330
53EC
100
AcDbEntity
  8
TAZ 101-0
  6
Continuous
 62
     7
370
     0
100
AcDbCircle
 10
2.825425
 20
0.769865
 30
0.0
 40
0.9987123588352391
210
0.0
220
0.0
230
-1.0
100
AcDbArc
 50
111.839481
 51
193.118351
  0
LINE
  5
52F9
330
53EC
100
AcDbEntity
  8
TAZ 101-0
  6
Continuous
 62
     7
370
     0
100
AcDbLine
 10
-1.676879
 20
1.72757
 30
0.0
 11
-1.940168
 21
1.232193
 31
0.0
  0
ARC
  5
52FA
330
53EC
100
AcDbEntity
  8
TAZ 101-0
  6
Continuous
 62
     7
370
     0
100
AcDbCircle
 10
1.499379
 20
1.87952
 30
0.0
 40
0.2336559399269707
210
0.0
220
0.0
230
-1.0
100
AcDbArc
 50
319.434777
 51
209.009492
  0
LINE
  5
52FB
330
53EC
100
AcDbEntity
  8
TAZ 101-0
  6
Continuous
 62
     7
370
     0
100
AcDbLine
 10
-1.295037
 20
1.766207
 30
0.0
 11
-1.855247
 21
0.544919
 31
0.0
  0
LINE
  5
52FC
330
53EC
100
AcDbEntity
  8
TAZ 101-0
  6
Continuous
 62
     7
370
     0
100
AcDbLine
 10
-2.001848
 20
0.220494
 30
0.0
 11
-2.523021
 21
-0.912948
 31
0.0
  0
LINE
  5
52FD
330
53EC
100
AcDbEntity
  8
TAZ 101-0
  6
Continuous
 62
     7
370
     0
100
AcDbLine
 10
-2.454711
 20
0.547409
 30
0.0
 11
-3.089691
 21
-2.182571
 31
0.0
  0
LINE
  5
52FE
330
53EC
100
AcDbEntity
  8
TAZ 101-0
  6
Continuous
 62
     7
370
     0
100
AcDbLine
 10
-2.76499
 20
-2.009897
 30
0.0
 11
-2.309611
 21
-1.293418
 31
0.0
  0
LINE
  5
52FF
330
53EC
100
AcDbEntity
  8
TAZ 101-0
  6
Continuous
 62
     7
370
     0
100
AcDbLine
 10
-2.366259
 20
-1.382547
 30
0.0
 11
-1.662488
 21
-2.311867
 31
0.0
  0
LINE
  5
5300
330
53EC
100
AcDbEntity
  8
TAZ 101-0
  6
Continuous
 62
     7
370
     0
100
AcDbLine
 10
-1.535125
 20
-1.971602
 30
0.0
 11
-2.006063
 21
-0.716164
 31
0.0
  0
ARC
  5
5301
330
53EC
100
AcDbEntity
  8
TAZ 101-0
  6
Continuous
 62
     7
370
     0
100
AcDbCircle
 10
2.487856
 20
-1.143311
 30
0.0
 40
0.2330313119573853
210
0.0
220
0.0
230
-1.0
100
AcDbArc
 50
81.320916
 51
220.102021
  0
ARC
  5
5302
330
53EC
100
AcDbEntity
  8
TAZ 101-0
  6
Continuous
 62
     7
370
     0
100
AcDbCircle
 10
-2.246307
 20
-0.860947
 30
0.0
 40
0.2778082821146786
100
AcDbArc
 50
28.6501
 51
121.075176
  0
LINE
  5
5303
330
53EC
100
AcDbEntity
  8
TAZ 101-0
  6
Continuous
 62
     7
370
     0
100
AcDbLine
 10
-3.187539
 20
-1.001211
 30
0.0
 11
-2.903863
 21
0.214693
 31
0.0
  0
LINE
  5
5304
330
53EC
100
AcDbEntity
  8
TAZ 101-0
  6
Continuous
 62
     7
370
     0
100
AcDbLine
 10
-2.772494
 20
-0.81884
 30
0.0
 11
-3.299685
 21
-0.150408
 31
0.0
  0
CIRCLE
  5
5305
330
53EC
100
AcDbEntity
  8
TAZ 101-0
  6
Continuous
 62
     7
370
     0
100
AcDbCircle
 10
-3.281522
 20
-0.994028
 30
0.0
 40
0.094256623678866
  0
ARC
  5
5306
330
53EC
100
AcDbEntity
  8
TAZ 101-0
  6
Continuous
 62
     7
370
     0
100
AcDbCircle
 10
-3.169632
 20
0.307545
 30
0.0
 40
0.2815218474600793
100
AcDbArc
 50
340.742046
 51
185.061921
  0
ARC
  5
5307
330
53EC
100
AcDbEntity
  8
TAZ 101-0
  6
Continuous
 62
     7
370
     0
100
AcDbCircle
 10
-2.77066
 20
0.275922
 30
0.0
 40
0.6794300491252061
100
AcDbArc
 50
179.427923
 51
218.864592
  0
ARC
  5
5308
330
53EC
100
AcDbEntity
  8
TAZ 101-0
  6
Continuous
 62
     7
370
     0
100
AcDbCircle
 10
-1.45994
 20
-2.191784
 30
0.0
 40
0.2354687738723077
100
AcDbArc
 50
210.662035
 51
109.047246
  0
ARC
  5
5309
330
53EC
100
AcDbEntity
  8
TAZ 101-0
  6
Continuous
 62
     7
370
     0
100
AcDbCircle
 10
2.869493
 20
-2.205013
 30
0.0
 40
0.2213390892141439
210
0.0
220
0.0
230
-1.0
100
AcDbArc
 50
118.173216
 51
5.819459
  0
ARC
  5
530A
330
53EC
100
AcDbEntity
  8
TAZ 101-0
  6
Continuous
 62
     7
370
     0
100
AcDbCircle
 10
1.376376
 20
0.067509
 30
0.0
 40
0.2421255374809137
210
0.0
220
0.0
230
-1.0
100
AcDbArc
 50
63.93976
 51
304.429673
  0
ARC
  5
530B
330
53EC
100
AcDbEntity
  8
TAZ 101-0
  6
Continuous
 62
     7
370
     0
100
AcDbCircle
 10
-2.748611
 20
1.605777
 30
0.0
 40
0.6866008844506566
210
0.0
220
0.0
230
-1.0
100
AcDbArc
 50
107.746104
 51
233.374424
  0
LINE
  5
530C
330
53EC
100
AcDbEntity
  8
TAZ 101-0
  6
Continuous
 62
     7
370
     0
100
AcDbLine
 10
3.158226
 20
1.054745
 30
0.0
 11
1.513995
 21
-0.132201
 31
0.0
  0
LINE
  5
530D
330
53EC
100
AcDbEntity
  8
TAZ 101-0
  6
Continuous
 62
     7
370
     0
100
AcDbLine
 10
1.483468
 20
0.285018
 30
0.0
 11
2.225238
 21
0.802564
 31
0.0
  0
LINE
  5
530E
330
53EC
100
AcDbEntity
  8
TAZ 101-0
  6
Continuous
 62
     7
370
     0
100
AcDbLine
 10
2.345211
 20
2.337078
 30
0.0
 11
2.341935
 21
2.180699
 31
0.0
  0
SPLINE
  5
530F
330
53EC
100
AcDbEntity
  8
TAZ 101-0
  6
Continuous
 62
     7
370
     0
100
AcDbSpline
210
0.0
220
0.0
230
1.0
 70
     8
 71
     3
 72
    17
 73
    13
 74
     0
 42
0.000000001
 43
0.0000000001
 40
0.0
 40
0.0
 40
0.0
 40
0.0
 40
0.3842689585007202
 40
0.3842689585007202
 40
0.3842689585007202
 40
0.6686166002504825
 40
0.6686166002504825
 40
0.6686166002504825
 40
0.8617888992996631
 40
0.8617888992996631
 40
0.8617888992996631
 40
1.0
 40
1.0
 40
1.0
 40
1.0
 10
2.34521111799404
 20
2.33707766002044
 30
0.0
 10
2.424791414290666
 20
2.336325587704777
 30
0.0
 10
2.504371710820123
 20
2.335573515156283
 30
0.0
 10
2.583952007116749
 20
2.33482144260779
 30
0.0
 10
2.64283906831406
 20
2.334264931152574
 30
0.0
 10
2.700888307299464
 20
2.321740322047844
 30
0.0
 10
2.759132938459515
 20
2.311939085484482
 30
0.0
 10
2.798701577819883
 20
2.305280590429902
 30
0.0
 10
2.83879283349961
 20
2.300477752811275
 30
0.0
 10
2.876643162220716
 20
2.287520066369324
 30
0.0
 10
2.903724351665005
 20
2.278249088441953
 30
0.0
 10
2.930805540876463
 20
2.26897811028175
 30
0.0
 10
2.957886730087921
 20
2.259707132121548
 30
0.0
  0
LINE
  5
5310
330
53EC
100
AcDbEntity
  8
TAZ 101-0
  6
Continuous
 62
     7
370
     0
100
AcDbLine
 10
1.961538
 20
1.971836
 30
0.0
 11
2.385514
 21
1.902572
 31
0.0
  0
ARC
  5
5311
330
53EC
100
AcDbEntity
  8
TAZ 101-0
  6
Continuous
 62
     7
370
     0
100
AcDbCircle
 10
2.392493
 20
2.031824
 30
0.0
 40
0.1294398613169319
100
AcDbArc
 50
266.90928
 51
82.173028
  0
LINE
  5
5312
330
53EC
100
AcDbEntity
  8
TAZ 101-0
  6
Continuous
 62
     7
370
     0
100
AcDbLine
 10
2.41012
 20
2.160058
 30
0.0
 11
2.341935
 21
2.180699
 31
0.0
  0
LINE
  5
5313
330
53EC
100
AcDbEntity
  8
TAZ 101-0
  6
Continuous
 62
     7
370
     0
100
AcDbLine
 10
2.871344
 20
2.42761
 30
0.0
 11
2.862938
 21
1.895316
 31
0.0
  0
CIRCLE
  5
5314
330
53EC
100
AcDbEntity
  8
TAZ 101-0
  6
Continuous
 62
     7
370
     0
100
AcDbCircle
 10
2.79534
 20
2.234814
 30
0.0
 40
0.0678694521034671
  0
ARC
  5
5315
330
53EC
100
AcDbEntity
  8
TAZ 101-0
  6
Continuous
 62
     7
370
     0
100
AcDbCircle
 10
-2.643884
 20
1.896873
 30
0.0
 40
0.2190600907133006
210
0.0
220
0.0
230
-1.0
100
AcDbArc
 50
180.40723
 51
279.974596
  0
LINE
  5
5316
330
53EC
100
AcDbEntity
  8
TAZ 101-0
  6
Continuous
 62
     7
370
     0
100
AcDbLine
 10
2.60594
 20
1.681124
 30
0.0
 11
2.332051
 21
1.708819
 31
0.0
  0
ARC
  5
5317
330
53EC
100
AcDbEntity
  8
TAZ 101-0
  6
Continuous
 62
     7
370
     0
100
AcDbCircle
 10
2.826147
 20
0.769865
 30
0.0
 40
0.9987123588352389
100
AcDbArc
 50
111.839481
 51
193.118351
  0
LINE
  5
5318
330
53EC
100
AcDbEntity
  8
TAZ 101-0
  6
Continuous
 62
     7
370
     0
100
AcDbLine
 10
1.677602
 20
1.72757
 30
0.0
 11
1.940891
 21
1.232193
 31
0.0
  0
ARC
  5
5319
330
53EC
100
AcDbEntity
  8
TAZ 101-0
  6
Continuous
 62
     7
370
     0
100
AcDbCircle
 10
1.500101
 20
1.87952
 30
0.0
 40
0.2336559399269708
100
AcDbArc
 50
319.434777
 51
209.009492
  0
LINE
  5
531A
330
53EC
100
AcDbEntity
  8
TAZ 101-0
  6
Continuous
 62
     7
370
     0
100
AcDbLine
 10
1.29576
 20
1.766207
 30
0.0
 11
1.85597
 21
0.544919
 31
0.0
  0
LINE
  5
531B
330
53EC
100
AcDbEntity
  8
TAZ 101-0
  6
Continuous
 62
     7
370
     0
100
AcDbLine
 10
2.00257
 20
0.220494
 30
0.0
 11
2.523743
 21
-0.912948
 31
0.0
  0
LINE
  5
531C
330
53EC
100
AcDbEntity
  8
TAZ 101-0
  6
Continuous
 62
     7
370
     0
100
AcDbLine
 10
2.455433
 20
0.547409
 30
0.0
 11
3.090414
 21
-2.182571
 31
0.0
  0
LINE
  5
531D
330
53EC
100
AcDbEntity
  8
TAZ 101-0
  6
Continuous
 62
     7
370
     0
100
AcDbLine
 10
2.765712
 20
-2.009897
 30
0.0
 11
2.310333
 21
-1.293418
 31
0.0
  0
LINE
  5
531E
330
53EC
100
AcDbEntity
  8
TAZ 101-0
  6
Continuous
 62
     7
370
     0
100
AcDbLine
 10
2.366982
 20
-1.382547
 30
0.0
 11
1.66321
 21
-2.311867
 31
0.0
  0
LINE
  5
531F
330
53EC
100
AcDbEntity
  8
TAZ 101-0
  6
Continuous
 62
     7
370
     0
100
AcDbLine
 10
1.535848
 20
-1.971602
 30
0.0
 11
2.006786
 21
-0.716164
 31
0.0
  0
ARC
  5
5320
330
53EC
100
AcDbEntity
  8
TAZ 101-0
  6
Continuous
 62
     7
370
     0
100
AcDbCircle
 10
2.488579
 20
-1.143311
 30
0.0
 40
0.2330313119573854
100
AcDbArc
 50
81.320916
 51
220.102021
  0
ARC
  5
5321
330
53EC
100
AcDbEntity
  8
TAZ 101-0
  6
Continuous
 62
     7
370
     0
100
AcDbCircle
 10
-2.24703
 20
-0.860947
 30
0.0
 40
0.2778082821146786
210
0.0
220
0.0
230
-1.0
100
AcDbArc
 50
28.6501
 51
121.075176
  0
LINE
  5
5322
330
53EC
100
AcDbEntity
  8
TAZ 101-0
  6
Continuous
 62
     7
370
     0
100
AcDbLine
 10
3.188262
 20
-1.001211
 30
0.0
 11
2.904586
 21
0.214693
 31
0.0
  0
LINE
  5
5323
330
53EC
100
AcDbEntity
  8
TAZ 101-0
  6
Continuous
 62
     7
370
     0
100
AcDbLine
 10
2.773216
 20
-0.81884
 30
0.0
 11
3.300407
 21
-0.150408
 31
0.0
  0
CIRCLE
  5
5324
330
53EC
100
AcDbEntity
  8
TAZ 101-0
  6
Continuous
 62
     7
370
     0
100
AcDbCircle
 10
3.282244
 20
-0.994028
 30
0.0
 40
0.094256623678866
  0
ARC
  5
5325
330
53EC
100
AcDbEntity
  8
TAZ 101-0
  6
Continuous
 62
     7
370
     0
100
AcDbCircle
 10
-3.170354
 20
0.307545
 30
0.0
 40
0.2815218474600794
210
0.0
220
0.0
230
-1.0
100
AcDbArc
 50
340.742046
 51
185.061921
  0
ARC
  5
5326
330
53EC
100
AcDbEntity
  8
TAZ 101-0
  6
Continuous
 62
     7
370
     0
100
AcDbCircle
 10
-2.771382
 20
0.275922
 30
0.0
 40
0.6794300491252067
210
0.0
220
0.0
230
-1.0
100
AcDbArc
 50
179.427923
 51
218.864592
  0
ARC
  5
5327
330
53EC
100
AcDbEntity
  8
TAZ 101-0
  6
Continuous
 62
     7
370
     0
100
AcDbCircle
 10
-1.460662
 20
-2.191784
 30
0.0
 40
0.2354687738723076
210
0.0
220
0.0
230
-1.0
100
AcDbArc
 50
210.662035
 51
109.047246
  0
ARC
  5
5328
330
53EC
100
AcDbEntity
  8
TAZ 101-0
  6
Continuous
 62
     7
370
     0
100
AcDbCircle
 10
2.870215
 20
-2.205013
 30
0.0
 40
0.2213390892141439
100
AcDbArc
 50
118.173216
 51
5.819459
  0
ARC
  5
5329
330
53EC
100
AcDbEntity
  8
TAZ 101-0
  6
Continuous
 62
     7
370
     0
100
AcDbCircle
 10
1.377098
 20
0.067509
 30
0.0
 40
0.2421255374809138
100
AcDbArc
 50
63.93976
 51
304.429673
  0
LINE
  5
532A
330
53EC
100
AcDbEntity
  8
TAZ 101-0
  6
Continuous
 62
     7
370
     0
100
AcDbLine
 10
1.45288
 20
0.856121
 30
0.0
 11
1.416451
 21
0.306415
 31
0.0
  0
LINE
  5
532B
330
53EC
100
AcDbEntity
  8
TAZ 101-0
  6
Continuous
 62
     7
370
     0
100
AcDbLine
 10
1.384581
 20
-0.174501
 30
0.0
 11
1.322194
 21
-1.115894
 31
0.0
  0
ENDBLK
  5
53EE
330
53EC
100
AcDbEntity
  8
0
 62
    30
370
     0
100
AcDbBlockEnd
  0
BLOCK
  5
53F0
330
53EF
100
AcDbEntity
  8
0
 62
    30
370
     0
100
AcDbBlockBegin
  2
*U3
 70
     1
 10
0.0
 20
0.0
 30
0.0
  3
*U3
  1

  0
MTEXT
  5
5331
330
53EF
100
AcDbEntity
  8
TAZ 101-0
  6
Continuous
 62
     7
370
     0
100
AcDbMText
 10
-4.152633
 20
1.475496
 30
0.0
 40
0.44988
 41
0.0
 46
0.0
 71
     1
 72
     1
  1
\fArial|b1|i0|c00|p39;\H1x;\W0.911176;\T1.416;Stadt Zürich\P\fArial|b0|i0|c00|p39;Tiefbauamt
  7
Style-Arial
 11
1.0
 21
0.0
 31
0.0
 73
     2
 44
0.933422
  0
MTEXT
  5
5356
330
53EF
100
AcDbEntity
  8
TAZ 101-0
  6
Continuous
 62
     7
370
     0
100
AcDbMText
 10
-4.143891
 20
0.024521
 30
0.0
 40
0.35
 41
0.0
 46
0.0
 71
     1
 72
     1
  1
\H1x;\W0.928571;\T1.186;Planung + Projektierung, TPA\PWerdmühleplatz 3, 8001 Zürich\PTelefon 044 412 42 12
  7
Style-Arial
 11
1.0
 21
0.0
 31
0.0
 73
     2
 44
1.028571
  0
ENDBLK
  5
53F1
330
53EF
100
AcDbEntity
  8
0
 62
    30
370
     0
100
AcDbBlockEnd
  0
ENDSEC
  0
SECTION
  2
ENTITIES
  0
LINE
  5
5285
330
535F
100
AcDbEntity
  8
TAZ 101-0
  6
Continuous
 62
     7
370
     0
100
AcDbLine
 10
682764.300465
 20
246919.124212
 30
0.0
 11
682762.300465
 21
246919.124212
 31
0.0
  0
LINE
  5
5286
330
535F
100
AcDbEntity
  8
TAZ 101-0
  6
Continuous
 62
     7
370
     0
100
AcDbLine
 10
682764.300465
 20
246978.524212
 30
0.0
 11
682762.300465
 21
246978.524212
 31
0.0
  0
LINE
  5
5287
330
535F
100
AcDbEntity
  8
TAZ 101-0
  6
Continuous
 62
     7
370
     0
100
AcDbLine
 10
682721.300465
 20
246919.124212
 30
0.0
 11
682721.300465
 21
246920.124212
 31
0.0
  0
LINE
  5
5288
330
535F
100
AcDbEntity
  8
TAZ 101-0
  6
Continuous
 62
     7
370
     0
100
AcDbLine
 10
682764.300465
 20
246919.124212
 30
0.0
 11
682762.300465
 21
246919.124212
 31
0.0
  0
LINE
  5
5289
330
535F
100
AcDbEntity
  8
TAZ 101-0
  6
Continuous
 62
     7
370
     0
100
AcDbLine
 10
682763.300465
 20
246919.124212
 30
0.0
 11
682763.300465
 21
246920.124212
 31
0.0
  0
LINE
  5
528A
330
535F
100
AcDbEntity
  8
TAZ 101-0
  6
Continuous
 62
     7
370
     0
100
AcDbLine
 10
682721.300465
 20
246977.524212
 30
0.0
 11
682721.300465
 21
246978.524212
 31
0.0
  0
LINE
  5
528B
330
535F
100
AcDbEntity
  8
TAZ 101-0
  6
Continuous
 62
     7
370
     0
100
AcDbLine
 10
682764.300465
 20
246978.524212
 30
0.0
 11
682762.300465
 21
246978.524212
 31
0.0
  0
LINE
  5
528C
330
535F
100
AcDbEntity
  8
TAZ 101-0
  6
Continuous
 62
     7
370
     0
100
AcDbLine
 10
682763.300465
 20
246977.524212
 30
0.0
 11
682763.300465
 21
246978.524212
 31
0.0
  0
LINE
  5
528D
330
535F
100
AcDbEntity
  8
TAZ 101-0
  6
Continuous
 62
     7
370
     0
100
AcDbLine
 10
682722.300465
 20
246978.524212
 30
0.0
 11
682721.300465
 21
246978.524212
 31
0.0
  0
LINE
  5
528E
330
535F
100
AcDbEntity
  8
TAZ 101-0
  6
Continuous
 62
     7
370
     0
100
AcDbLine
 10
682763.300465
 20
246978.524212
 30
0.0
 11
682762.300465
 21
246978.524212
 31
0.0
  0
LINE
  5
528F
330
535F
100
AcDbEntity
  8
TAZ 101-0
  6
Continuous
 62
     7
370
     0
100
AcDbLine
 10
682763.300465
 20
246977.524212
 30
0.0
 11
682763.300465
 21
246978.524212
 31
0.0
  0
LINE
  5
5290
330
535F
100
AcDbEntity
  8
TAZ 101-0
  6
Continuous
 62
     7
370
     0
100
AcDbLine
 10
682722.300465
 20
246919.124212
 30
0.0
 11
682721.300465
 21
246919.124212
 31
0.0
  0
LINE
  5
5291
330
535F
100
AcDbEntity
  8
TAZ 101-0
  6
Continuous
 62
     7
370
     0
100
AcDbLine
 10
682763.300465
 20
246919.124212
 30
0.0
 11
682762.300465
 21
246919.124212
 31
0.0
  0
LINE
  5
5292
330
535F
100
AcDbEntity
  8
TAZ 101-0
  6
Continuous
 62
     7
370
     0
100
AcDbLine
 10
682763.300465
 20
246919.124212
 30
0.0
 11
682763.300465
 21
246920.124212
 31
0.0
  0
LWPOLYLINE
  5
5293
330
535F
100
AcDbEntity
  8
TAZ 101-0
  6
DGN Style 2
 62
     1
370
    40
100
AcDbPolyline
 90
        5
 70
   129
 43
0.0
 10
682740.451893
 20
246940.935259
 10
682743.013356
 20
246931.198704
 10
682745.192923
 20
246931.772097
 10
682742.63146
 20
246941.508653
 10
682740.451893
 20
246940.935259
  0
LWPOLYLINE
  5
5294
330
535F
100
AcDbEntity
  8
TAZ 101-0
  6
Continuous
 62
     1
370
    53
100
AcDbPolyline
 90
        5
 70
   129
 43
0.0
 10
682742.224967
 20
246933.771839
 10
682747.31242
 20
246936.366568
 10
682746.262645
 20
246938.424849
 10
682741.175192
 20
246935.830121
 10
682742.224967
 20
246933.771839
  0
POINT
  5
5295
330
535F
100
AcDbEntity
  8
TAZ 101-0
  6
DGN Style 2
 62
    40
370
     0
100
AcDbPoint
 10
682763.300465
 20
246977.524212
 30
0.0
  0
INSERT
  5
5296
330
535F
100
AcDbEntity
  8
TAZ 106-0
  6
Continuous
 62
    30
370
    40
100
AcDbBlockReference
  2
*U0
 10
682752.300808
 20
246922.869525
 30
0.0
 50
333.01407
  0
INSERT
  5
529B
330
535F
100
AcDbEntity
  8
TAZ 105-0
  6
Continuous
 62
   163
370
    40
100
AcDbBlockReference
  2
*U1
 10
682732.301098
 20
246922.869302
 30
0.0
 50
333.01407
  0
LWPOLYLINE
  5
52A2
330
535F
100
AcDbEntity
  8
TAZ 115-0
  6
Continuous
 62
   253
370
    13
100
AcDbPolyline
 90
        5
 70
   129
 43
0.0
 10
682723.300465
 20
246946.524212
 10
682761.300465
 20
246946.524212
 10
682761.300465
 20
246926.524212
 10
682723.300465
 20
246926.524212
 10
682723.300465
 20
246946.524212
  0
LINE
  5
52A3
330
535F
100
AcDbEntity
  8
TAZ 101-0
  6
Continuous
 62
     7
370
    53
100
AcDbLine
 10
682761.280465
 20
246976.524212
 30
0.0
 11
682761.280465
 21
246952.524212
 31
0.0
  0
LINE
  5
52A4
330
535F
100
AcDbEntity
  8
TAZ 101-0
  6
Continuous
 62
     7
370
    53
100
AcDbLine
 10
682723.300465
 20
246952.524212
 30
0.0
 11
682723.300465
 21
246976.524212
 31
0.0
  0
LINE
  5
52A5
330
535F
100
AcDbEntity
  8
TAZ 101-0
  6
Continuous
 62
     7
370
    30
100
AcDbLine
 10
682733.280465
 20
246961.624212
 30
0.0
 11
682761.280465
 21
246961.624212
 31
0.0
  0
LINE
  5
52A6
330
535F
100
AcDbEntity
  8
TAZ 101-0
  6
Continuous
 62
     7
370
    30
100
AcDbLine
 10
682733.280465
 20
246956.724212
 30
0.0
 11
682761.280465
 21
246956.724212
 31
0.0
  0
LINE
  5
52A7
330
535F
100
AcDbEntity
  8
TAZ 101-0
  6
Continuous
 62
     7
370
    30
100
AcDbLine
 10
682733.280465
 20
246954.624212
 30
0.0
 11
682761.280465
 21
246954.624212
 31
0.0
  0
LINE
  5
52A8
330
535F
100
AcDbEntity
  8
TAZ 101-0
  6
Continuous
 62
     7
370
    30
100
AcDbLine
 10
682733.280465
 20
246952.524212
 30
0.0
 11
682733.280465
 21
246976.524212
 31
0.0
  0
LINE
  5
52A9
330
535F
100
AcDbEntity
  8
TAZ 101-0
  6
Continuous
 62
     7
370
    30
100
AcDbLine
 10
682744.480465
 20
246961.624212
 30
0.0
 11
682744.480465
 21
246952.524212
 31
0.0
  0
MTEXT
  5
52AA
330
535F
100
AcDbEntity
  8
TAZ 101-0
  6
Continuous
 62
     7
370
     0
100
AcDbMText
 10
682744.900465
 20
246961.344212
 30
0.0
 40
0.35
 41
0.0
 46
0.0
 71
     1
 72
     1
  1
\H1x;\W0.928571;\T1.186;Ausfertigung für
  7
Style-Arial
 11
1.0
 21
0.0
 31
0.0
 73
     2
 44
0.6
  0
LINE
  5
52AB
330
535F
100
AcDbEntity
  8
TAZ 101-0
  6
Continuous
 62
     7
370
    53
100
AcDbLine
 10
682723.300465
 20
246976.524212
 30
0.0
 11
682761.280465
 21
246976.524212
 31
0.0
  0
MTEXT
  5
52AC
330
535F
100
AcDbEntity
  8
TAZ 101-0
  6
Continuous
 62
     7
370
     0
100
AcDbMText
 10
682733.700465
 20
246961.344212
 30
0.0
 40
0.35
 41
0.0
 46
0.0
 71
     1
 72
     1
  1
\H1x;\W0.928571;\T1.186;Projektiert durch
  7
Style-Arial
 11
1.0
 21
0.0
 31
0.0
 73
     2
 44
0.6
  0
LINE
  5
52AE
330
535F
100
AcDbEntity
  8
TAZ 101-0
  6
Continuous
 62
     7
370
    53
100
AcDbLine
 10
682761.280465
 20
246952.524212
 30
0.0
 11
682723.300465
 21
246952.524212
 31
0.0
  0
MTEXT
  5
52AF
330
535F
100
AcDbEntity
  8
TAZ 102-0
  6
Continuous
 62
     7
370
     0
100
AcDbMText
 10
682723.876632
 20
246961.538562
 30
0.0
 40
0.35
 41
0.0
 46
0.0
 71
     1
 72
     1
  1
\H1x;\W0.928571;\T1.186;Partner
  7
Style-Arial
 11
1.0
 21
0.0
 31
0.0
 73
     2
 44
0.6
  0
LINE
  5
52B0
330
535F
100
AcDbEntity
  8
TAZ 101-0
  6
Continuous
 62
     7
370
    13
100
AcDbLine
 10
682738.880465
 20
246956.724209
 30
0.0
 11
682738.880463
 21
246952.524212
 31
0.0
  0
LINE
  5
52B1
330
535F
100
AcDbEntity
  8
TAZ 101-0
  6
Continuous
 62
     7
370
    13
100
AcDbLine
 10
682750.080465
 20
246956.724204
 30
0.0
 11
682750.080464
 21
246954.624204
 31
0.0
  0
LINE
  5
52B2
330
535F
100
AcDbEntity
  8
TAZ 101-0
  6
Continuous
 62
     7
370
    13
100
AcDbLine
 10
682755.680465
 20
246956.724201
 30
0.0
 11
682755.680464
 21
246954.624201
 31
0.0
  0
MTEXT
  5
52B3
330
535F
100
AcDbEntity
  8
TAZ 101-0
  6
Continuous
 62
     7
370
     0
100
AcDbMText
 10
682747.984353
 20
246954.005033
 30
0.0
 40
0.3
 41
0.0
 46
0.0
 71
     1
 72
     1
  1
\H1x;\W0.966667;\T1.271;L:\\ 08_Projekte\\ 01_Projekte\\ 00000_Musterstrasse_\\\PPR\\10 Pläne\\ 03_Bauprojekt
  7
1 200   060 0000
 11
1.0
 21
-0.000001
 31
0.0
 73
     2
 44
1.2
  0
MTEXT
  5
52C1
330
535F
100
AcDbEntity
  8
TAZ 101-0
  6
Continuous
 62
     7
370
     0
100
AcDbMText
 10
682733.700465
 20
246956.444212
 30
0.0
 40
0.35
 41
0.0
 46
0.0
 71
     1
 72
     1
  1
\H1x;\W0.928571;\T1.186;Bearb. / Gepr.
  7
Style-Arial
 11
1.0
 21
-0.000001
 31
0.0
 73
     2
 44
0.6
  0
MTEXT
  5
52C2
330
535F
100
AcDbEntity
  8
TAZ 101-0
  6
Continuous
 62
     7
370
     0
100
AcDbMText
 10
682739.300465
 20
246956.444212
 30
0.0
 40
0.35
 41
0.0
 46
0.0
 71
     1
 72
     1
  1
\H1x;\W0.928571;\T1.186;Datum
  7
Style-Arial
 11
1.0
 21
-0.000001
 31
0.0
 73
     2
 44
0.6
  0
MTEXT
  5
52C3
330
535F
100
AcDbEntity
  8
TAZ 101-0
  6
Continuous
 62
     7
370
     0
100
AcDbMText
 10
682744.900465
 20
246956.444212
 30
0.0
 40
0.35
 41
0.0
 46
0.0
 71
     1
 72
     1
  1
\H1x;\W0.928571;\T1.186;Format
  7
Style-Arial
 11
1.0
 21
-0.000001
 31
0.0
 73
     2
 44
0.6
  0
MTEXT
  5
52C4
330
535F
100
AcDbEntity
  8
TAZ 101-0
  6
Continuous
 62
     7
370
     0
100
AcDbMText
 10
682750.500465
 20
246956.444212
 30
0.0
 40
0.35
 41
0.0
 46
0.0
 71
     1
 72
     1
  1
\H1x;\W0.928571;\T1.186;TAZ Bau - Nr.
  7
Style-Arial
 11
1.0
 21
-0.000001
 31
0.0
 73
     2
 44
0.6
  0
MTEXT
  5
52C5
330
535F
100
AcDbEntity
  8
TAZ 101-0
  6
Continuous
 62
     7
370
     0
100
AcDbMText
 10
682756.100465
 20
246956.444212
 30
0.0
 40
0.35
 41
0.0
 46
0.0
 71
     1
 72
     1
  1
\H1x;\W0.928571;\T1.186;Plan - Nr.
  7
Style-Arial
 11
1.0
 21
-0.000001
 31
0.0
 73
     2
 44
0.6
  0
MTEXT
  5
52C6
330
535F
100
AcDbEntity
  8
TAZ 101-0
  6
Continuous
 62
     7
370
     0
100
AcDbMText
 10
682744.900465
 20
246954.344212
 30
0.0
 40
0.35
 41
0.0
 46
0.0
 71
     1
 72
     1
  1
\H1x;\W0.928571;\T1.186;Dateipfad
  7
Style-Arial
 11
1.0
 21
-0.000001
 31
0.0
 73
     2
 44
0.6
  0
INSERT
  5
52C7
330
535F
100
AcDbEntity
  8
TAZ 101-0
  6
Continuous
 62
     7
370
     0
100
AcDbBlockReference
  2
*U2
 10
682725.204333
 20
246974.537504
 30
0.0
 41
0.363246
 42
0.363246
 43
0.363246
  0
MTEXT
  5
532C
330
535F
100
AcDbEntity
  8
TAZ 101-0
  6
Continuous
 62
     7
370
     0
100
AcDbMText
 10
682726.977962
 20
246975.389107
 30
0.0
 40
0.678144
 41
0.0
 46
0.0
 71
     1
 72
     1
  1
\fArial|b1|i0|c00|p39;\H1x;\W0.89902;\T1.208;Stadt Zürich
  7
Style-Arial
 11
1.0
 21
0.0
 31
0.0
 73
     2
 44
0.6
  0
MTEXT
  5
532D
330
535F
100
AcDbEntity
  8
TAZ 101-0
  6
Continuous
 62
     7
370
     0
100
AcDbMText
 10
682726.989195
 20
246974.352605
 30
0.0
 40
0.69417
 41
0.0
 46
0.0
 71
     1
 72
     1
  1
\H1x;\W0.829264;\T1.191;Tiefbauamt
  7
Style-Arial
 11
1.0
 21
0.0
 31
0.0
 73
     2
 44
0.6
  0
MTEXT
  5
532E
330
535F
100
AcDbEntity
  8
TAZ 101-0
  6
Continuous
 62
     1
370
     0
100
AcDbMText
 10
682744.678544
 20
246934.600732
 30
0.0
 40
0.54
 41
0.0
 46
0.0
 71
     1
 72
     1
  1
\fArial|b1|i0|c00|p39;\H1x;\W0.953704;\T1.151;00000-01
  7
1 200   120 0
 11
0.891544
 21
0.452933
 31
0.0
 73
     2
 44
0.6
  0
MTEXT
  5
532F
330
535F
100
AcDbEntity
  8
TAZ 101-0
  6
Continuous
 62
     1
370
     0
100
AcDbMText
 10
682740.106989
 20
246940.886234
 30
0.0
 40
0.54
 41
0.0
 46
0.0
 71
     1
 72
     1
  1
\fArial|b1|i0|c00|p39;\H1x;\W0.953704;\T1.151;00000-02
  7
1 200   120 0
 11
0.254398
 21
-0.9671
 31
0.0
 73
     2
 44
0.6
  0
MTEXT
  5
5338
330
535F
100
AcDbEntity
  8
TAZ 101-0
  6
Continuous
 62
     7
370
     0
100
AcDbMText
 10
682733.700465
 20
246954.8777
 30
0.0
 40
0.5
 41
0.0
 46
0.0
 71
     7
 72
     1
  1
\H1x;\W0.9;\T1.163;??? / ???
  7
1 200   100 00
 11
1.0
 21
-0.000001
 31
0.0
 73
     2
 44
0.6
  0
MTEXT
  5
5339
330
535F
100
AcDbEntity
  8
TAZ 101-0
  6
Continuous
 62
     1
370
     0
100
AcDbMText
 10
682739.300464
 20
246954.8777
 30
0.0
 40
0.5
 41
0.0
 46
0.0
 71
     7
 72
     1
  1
\H1x;\W0.9;\T1.163;TT MM JJJJ
  7
1 200   100 00
 11
1.0
 21
-0.000001
 31
0.0
 73
     2
 44
0.6
  0
MTEXT
  5
533A
330
535F
100
AcDbEntity
  8
TAZ 101-0
  6
Continuous
 62
     7
370
     0
100
AcDbMText
 10
682744.900465
 20
246954.8777
 30
0.0
 40
0.5
 41
0.0
 46
0.0
 71
     7
 72
     1
  1
\H1x;\W0.9;\T1.163;XX / YYY
  7
1 200   100 00
 11
1.0
 21
-0.000001
 31
0.0
 73
     2
 44
0.6
  0
MTEXT
  5
533B
330
535F
100
AcDbEntity
  8
TAZ 101-0
  6
Continuous
 62
     7
370
     0
100
AcDbMText
 10
682750.500464
 20
246954.731029
 30
0.0
 40
0.7
 41
0.0
 46
0.0
 71
     7
 72
     1
  1
\H1x;\W0.9;\T1.116;00000
  7
1 200   140 1
 11
1.0
 21
-0.000001
 31
0.0
 73
     2
 44
0.6
  0
MTEXT
  5
533C
330
535F
100
AcDbEntity
  8
TAZ 101-0
  6
Continuous
 62
     1
370
     0
100
AcDbMText
 10
682756.100464
 20
246954.731029
 30
0.0
 40
0.7
 41
0.0
 46
0.0
 71
     7
 72
     1
  1
\H1x;\W0.9;\T1.116;00000 - 00
  7
1 200   140 1
 11
1.0
 21
-0.000001
 31
0.0
 73
     2
 44
0.6
  0
MTEXT
  5
533D
330
535F
100
AcDbEntity
  8
TAZ 101-0
  6
Continuous
 62
     1
370
     0
100
AcDbMText
 10
682739.300463
 20
246952.777703
 30
0.0
 40
0.5
 41
0.0
 46
0.0
 71
     7
 72
     1
  1
\H1x;\W0.9;\T1.163;TT MM JJJJ
  7
1 200   100 00
 11
1.0
 21
-0.000001
 31
0.0
 73
     2
 44
0.6
  0
MTEXT
  5
533E
330
535F
100
AcDbEntity
  8
TAZ 101-0
  6
Continuous
 62
     7
370
     0
100
AcDbMText
 10
682739.300464
 20
246954.344212
 30
0.0
 40
0.35
 41
0.0
 46
0.0
 71
     1
 72
     1
  1
\H1x;\W0.928571;\T1.186;Änderungen
  7
Style-Arial
 11
1.0
 21
-0.000001
 31
0.0
 73
     2
 44
0.6
  0
MTEXT
  5
533F
330
535F
100
AcDbEntity
  8
TAZ 101-0
  6
Continuous
 62
     7
370
     0
100
AcDbMText
 10
682733.700465
 20
246954.344212
 30
0.0
 40
0.35
 41
0.0
 46
0.0
 71
     1
 72
     1
  1
\H1x;\W0.928571;\T1.186;TAZ Projektleitung
  7
Style-Arial
 11
1.0
 21
-0.000001
 31
0.0
 73
     2
 44
0.6
  0
MTEXT
  5
5340
330
535F
100
AcDbEntity
  8
TAZ 101-0
  6
Continuous
 62
     7
370
     0
100
AcDbMText
 10
682733.700464
 20
246952.777703
 30
0.0
 40
0.5
 41
0.0
 46
0.0
 71
     7
 72
     1
  1
\H1x;\W0.9;\T1.163;???
  7
1 200   100 00
 11
1.0
 21
-0.000001
 31
0.0
 73
     2
 44
0.6
  0
MTEXT
  5
5341
330
535F
100
AcDbEntity
  8
TAZ 102-0
  6
Continuous
 62
     7
370
     0
100
AcDbMText
 10
682723.874863
 20
246960.625781
 30
0.0
 40
0.44988
 41
0.0
 46
0.0
 71
     1
 72
     1
  1
\H1x;\W0.911176;Dienstabteilung Verkehr\PGrün Stadt Zürich\PWasserversorgung Zürich\PElektrizitätswerk Zürich\PEnergie 360°\PERZ Entsorgung + Recycling Zürich\PVerkehrsbetriebe Zürich\P. . . . . .
  7
Style-Arial
 11
1.0
 21
-0.000001
 31
0.0
 73
     2
 44
1.133476
  0
MTEXT
  5
52BA
330
535F
100
AcDbEntity
  8
TAZ 101-0
  6
Continuous
 62
     7
370
     0
100
AcDbMText
 10
682734.580462
 20
246969.224174
 30
0.0
 40
0.7
 41
0.0
 46
0.0
 71
     1
 72
     1
  1
\H1x;\W0.914286;\T1.211;Abschnitt
  7
1 200   140 1
 11
1.0
 21
-0.000001
 31
0.0
 73
     2
 44
0.6
  0
MTEXT
  5
52BC
330
535F
100
AcDbEntity
  8
TAZ 101-0
  6
Continuous
 62
     1
370
     0
100
AcDbMText
 10
682734.58046
 20
246967.184174
 30
0.0
 40
0.7
 41
0.0
 46
0.0
 71
     1
 72
     1
  1
\H1x;\W0.914286;\T1.211;Strassenbau / Fussgänger 
  7
1 200   140 1
 11
1.0
 21
-0.000001
 31
0.0
 73
     2
 44
0.6
  0
MTEXT
  5
52BF
330
535F
100
AcDbEntity
  8
TAZ 101-0
  6
Continuous
 62
     1
370
     0
100
AcDbMText
 10
682747.772397
 20
246967.184171
 30
0.0
 40
0.7
 41
0.0
 46
0.0
 71
     1
 72
     1
  1
\H1x;\W0.914286;\T1.211;/ Gleisbau
  7
1 200   140 1
 11
1.0
 21
-0.000001
 31
0.0
 73
     2
 44
0.6
  0
MTEXT
  5
52BE
330
535F
100
AcDbEntity
  8
TAZ 101-0
  6
Continuous
 62
     1
370
     0
100
AcDbMText
 10
682753.079311
 20
246967.184168
 30
0.0
 40
0.7
 41
0.0
 46
0.0
 71
     1
 72
     1
  1
\H1x;\W0.914286;\T1.211;/ Velo
  7
1 200   140 1
 11
1.0
 21
-0.000001
 31
0.0
 73
     2
 44
0.6
  0
MTEXT
  5
52C0
330
535F
100
AcDbEntity
  8
TAZ 101-0
  6
Continuous
 62
    96
370
     0
100
AcDbMText
 10
682739.467652
 20
246965.863203
 30
0.0
 40
0.7
 41
0.0
 46
0.0
 71
     1
 72
     1
  1
\H1x;\W0.914286;\T1.211;/ Werkleitungen
  7
1 200   140 1
 11
1.0
 21
-0.000001
 31
0.0
 73
     2
 44
0.6
  0
MTEXT
  5
52BD
330
535F
100
AcDbEntity
  8
TAZ 101-0
  6
Continuous
 62
    30
370
     0
100
AcDbMText
 10
682734.565522
 20
246965.863206
 30
0.0
 40
0.7
 41
0.0
 46
0.0
 71
     1
 72
     1
  1
\H1x;\W0.914286;\T1.211;Kanalbau 
  7
1 200   140 1
 11
1.0
 21
-0.000001
 31
0.0
 73
     2
 44
0.6
  0
INSERT
  5
5330
330
535F
100
AcDbEntity
  8
TAZ 101-0
  6
Continuous
 62
     7
370
     0
100
AcDbBlockReference
  2
*U3
 10
682738.718155
 20
246958.932
 30
0.0
  0
MTEXT
  5
52B7
330
535F
100
AcDbEntity
  8
TAZ 101-0
  6
Continuous
 62
     7
370
     0
100
AcDbMText
 10
682734.580464
 20
246973.474212
 30
0.0
 40
1.2
 41
0.0
 46
0.0
 71
     1
 72
     1
  1
\H1x;\W0.9;\T1.187;Haupttitel
  7
1 200   240 3
 11
1.0
 21
-0.000001
 31
0.0
 73
     2
 44
0.6
  0
MTEXT
  5
52AD
330
535F
100
AcDbEntity
  8
TAZ 101-0
  6
Continuous
 62
     7
370
     0
100
AcDbMText
 10
682734.580465
 20
246963.824212
 30
0.0
 40
1.2
 41
0.0
 46
0.0
 71
     1
 72
     1
  1
\H1x;\W0.9;\T1.187;Situation     1 : 200
  7
1 200   240 3
 11
1.0
 21
0.0
 31
0.0
 73
     2
 44
0.6
  0
MTEXT
  5
52B8
330
535F
100
AcDbEntity
  8
TAZ 101-0
  6
Continuous
 62
     7
370
     0
100
AcDbMText
 10
682734.580463
 20
246971.374212
 30
0.0
 40
0.9
 41
0.0
 46
0.0
 71
     1
 72
     1
  1
\H1x;\W0.9;\T1.244;Bereich  ( von bis )
  7
1 200   175 2
 11
1.0
 21
-0.000001
 31
0.0
 73
     2
 44
0.9
  0
MTEXT
  5
52B6
330
535F
100
AcDbEntity
  8
TAZ 101-0
  6
Continuous
 62
     1
370
     0
100
AcDbMText
 10
682734.580465
 20
246975.524212
 30
0.0
 40
0.9
 41
0.0
 46
0.0
 71
     1
 72
     1
  1
\H1x;\W0.9;\T1.244;Projektstufe
  7
1 200   175 2
 11
1.0
 21
-0.000001
 31
0.0
 73
     2
 44
0.6
  0
ENDSEC
  0
SECTION
  2
OBJECTS
  0
DICTIONARY
  5
5366
330
0
100
AcDbDictionary
281
     1
  3
ACAD_COLOR
350
53A4
  3
ACAD_GROUP
350
5391
  3
ACAD_LAYOUT
350
5373
  3
ACAD_MATERIAL
350
5368
  3
ACAD_MLEADERSTYLE
350
53A7
  3
ACAD_MLINESTYLE
350
5392
  3
ACAD_PLOTSETTINGS
350
5393
  3
ACAD_PLOTSTYLENAME
350
5365
  3
ACAD_SCALELIST
350
53A5
  3
ACAD_TABLESTYLE
350
53A6
  3
ACAD_VISUALSTYLE
350
538B
  3
AcadDim
350
53E2
  3
ACDB_RECOMPOSE_DATA
350
5401
  3
AcDbVariableDictionary
350
53F5
  3
MicroStation
350
53E3
  0
DICTIONARY
  5
537E
330
537D
100
AcDbDictionary
280
     1
281
     1
  3
ACAD_LAYERFILTERS
360
53D2
  3
ACAD_LAYERSTATES
360
537F
  3
ACLYDICTIONARY
360
53D3
  0
DICTIONARY
  5
5362
330
5361
100
AcDbDictionary
280
     1
281
     1
  3
ADSK_XREC_LAYER_RECONCILED
360
5363
  0
DICTIONARY
  5
53F2
330
535F
100
AcDbDictionary
280
     1
281
     1
  3
ACAD_SORTENTS
360
53F3
  0
DICTIONARY
  5
53A4
102
{ACAD_REACTORS
330
5366
102
}
330
5366
100
AcDbDictionary
281
     1
  0
DICTIONARY
  5
5391
102
{ACAD_REACTORS
330
5366
102
}
330
5366
100
AcDbDictionary
281
     1
  0
DICTIONARY
  5
5373
102
{ACAD_REACTORS
330
5366
102
}
330
5366
100
AcDbDictionary
281
     1
  3
Layout1
350
5379
  3
Model
350
5372
  0
DICTIONARY
  5
5368
102
{ACAD_REACTORS
330
5366
102
}
330
5366
100
AcDbDictionary
281
     1
  3
ByBlock
350
539C
  3
ByLayer
350
5394
  3
Global
350
5367
  0
DICTIONARY
  5
53A7
102
{ACAD_REACTORS
330
5366
102
}
330
5366
100
AcDbDictionary
281
     1
  0
DICTIONARY
  5
5392
102
{ACAD_REACTORS
330
5366
102
}
330
5366
100
AcDbDictionary
281
     1
  3
Standard
350
53A8
  0
DICTIONARY
  5
5393
102
{ACAD_REACTORS
330
5366
102
}
330
5366
100
AcDbDictionary
281
     1
  0
ACDBDICTIONARYWDFLT
  5
5365
102
{ACAD_REACTORS
330
5366
102
}
330
5366
100
AcDbDictionary
281
     1
  3
Normal
350
5364
100
AcDbDictionaryWithDefault
340
5364
  0
DICTIONARY
  5
53A5
102
{ACAD_REACTORS
330
5366
102
}
330
5366
100
AcDbDictionary
281
     1
  3
A0
350
53AD
  3
A1
350
53AE
  3
A2
350
53AF
  3
A3
350
53B0
  3
A4
350
53B1
  3
A5
350
53B2
  3
A6
350
53B3
  3
A7
350
53B4
  3
A8
350
53B5
  3
A9
350
53B6
  3
B0
350
53B7
  3
B1
350
53B8
  3
B2
350
53B9
  3
B3
350
53BA
  3
B4
350
53BB
  3
B5
350
53BC
  3
B6
350
53BD
  3
B7
350
53BE
  3
B8
350
53BF
  3
B9
350
53C0
  3
C0
350
53C1
  3
C1
350
53C2
  3
C2
350
53C3
  3
C3
350
53C4
  3
C4
350
53C5
  3
C5
350
53C6
  3
C6
350
53C7
  3
C7
350
53C8
  3
C8
350
53C9
  3
C9
350
53CA
  3
D0
350
53CB
  3
D1
350
53CC
  3
D2
350
53CD
  0
DICTIONARY
  5
53A6
102
{ACAD_REACTORS
330
5366
102
}
330
5366
100
AcDbDictionary
281
     1
  3
Standard
350
53A9
  0
DICTIONARY
  5
538B
102
{ACAD_REACTORS
330
5366
102
}
330
5366
100
AcDbDictionary
281
     1
  3
2dWireframe
350
538A
  3
Realistic
350
53AB
  3
Wireframe
350
53AC
  0
XRECORD
  5
53E2
102
{ACAD_REACTORS
330
5366
102
}
330
5366
100
AcDbXrecord
280
     1
 90
   990106
  3
 
 60
     0
 61
     0
 62
     1
 63
     1
 64
     0
 65
     0
 66
     0
 67
     3
 68
     1
 69
     1
 70
     0
 71
     0
 72
     0
 40
0.0
170
     0
  0
XRECORD
  5
5401
102
{ACAD_REACTORS
330
5366
102
}
330
5366
100
AcDbXrecord
280
     1
 90
        1
330
53A9
  0
DICTIONARY
  5
53F5
102
{ACAD_REACTORS
330
5366
102
}
330
5366
100
AcDbDictionary
281
     1
  3
CANNOSCALE
350
53FB
  3
CMLEADERSTYLE
350
53F7
  3
CTABLESTYLE
350
53F6
  3
CVIEWDETAILSTYLE
350
53F8
  3
CVIEWSECTIONSTYLE
350
53F9
  3
LAYEREVAL
350
53FC
  3
LAYERNOTIFY
350
53FD
  3
MSLTSCALE
350
53FA
  0
DICTIONARY
  5
53E3
102
{ACAD_REACTORS
330
5366
102
}
330
5366
100
AcDbDictionary
281
     1
  0
DICTIONARY
  5
53D2
102
{ACAD_REACTORS
330
537E
102
}
330
537E
100
AcDbDictionary
281
     1
  3
Alle Ebenen
350
53D4
  3
alte TAZ Ebenen
350
53DC
  3
best Werke
350
53D6
  3
neue TAZ Ebenen
350
53E0
  3
Projekt Füllflächen
350
53DA
  3
Projekt Werke
350
53D8
  3
Signalisation
350
53DE
  0
DICTIONARY
  5
537F
102
{ACAD_REACTORS
330
537E
102
}
330
537E
100
AcDbDictionary
281
     1
  0
DICTIONARY
  5
53D3
102
{ACAD_REACTORS
330
537E
102
}
330
537E
100
AcDbDictionary
281
     1
  3
*A1
350
53D5
  3
*A2
350
53D7
  3
*A3
350
53D9
  3
*A4
350
53DB
  3
*A5
350
53DD
  3
*A6
350
53DF
  3
*A7
350
53E1
  0
XRECORD
  5
5363
102
{ACAD_REACTORS
330
5362
102
}
330
5362
100
AcDbXrecord
280
     1
290
     1
  0
SORTENTSTABLE
  5
53F3
102
{ACAD_REACTORS
330
53F2
102
}
330
53F2
100
AcDbSortentsTable
330
535F
331
52B3
  5
52B7
331
5288
  5
528F
331
52A2
  5
5289
331
52BD
  5
533D
331
533F
  5
532F
331
532F
  5
52C3
331
52C4
  5
52BD
331
52AB
  5
52AF
331
5291
  5
52A2
331
52A3
  5
52A7
331
5289
  5
5290
331
52BE
  5
533B
331
5340
  5
5330
331
52C5
  5
52BE
331
52AC
  5
52B0
331
5292
  5
52A3
331
5338
  5
52C4
331
52A4
  5
52A8
331
528A
  5
5291
331
529B
  5
5286
331
52AD
  5
533F
331
52BF
  5
533A
331
5293
  5
52A4
331
52C6
  5
52BF
331
5341
  5
528B
331
52B6
  5
5341
331
5339
  5
52C5
331
52A5
  5
52A9
331
528B
  5
5292
331
52AE
  5
52B1
331
5294
  5
52A5
331
5330
  5
5288
331
52C7
  5
5287
331
52B8
  5
5340
331
52B7
  5
533E
331
533A
  5
52C6
331
52A6
  5
52AA
331
528C
  5
5293
331
5295
  5
52A6
331
52AF
  5
528A
331
52C0
  5
533C
331
533B
  5
52C7
331
52A7
  5
52AB
331
528D
  5
5294
331
52B0
  5
52B2
331
5285
  5
528C
331
5296
  5
5285
331
52BA
  5
5338
331
533C
  5
532C
331
532C
  5
52C0
331
52C1
  5
52B8
331
52A8
  5
52AC
331
528E
  5
5295
331
52B1
  5
52B3
331
5286
  5
528D
331
533D
  5
532D
331
532D
  5
52C1
331
52C2
  5
52BA
331
52A9
  5
52AD
331
528F
  5
5296
331
52B2
  5
52B6
331
5287
  5
528E
331
52BC
  5
5339
331
533E
  5
532E
331
532E
  5
52C2
331
52C3
  5
52BC
331
52AA
  5
52AE
331
5290
  5
529B
  0
LAYOUT
  5
5379
102
{ACAD_XDICTIONARY
360
537A
102
}
102
{ACAD_REACTORS
330
5373
102
}
330
5373
100
AcDbPlotSettings
  1

  2
none_device
  4
Letter_(8.50_x_11.00_Inches)
  6

 40
6.35
 41
6.35
 42
6.350006
 43
6.350006
 44
215.899994
 45
279.399994
 46
0.0
 47
0.0
 48
0.0
 49
0.0
140
0.0
141
0.0
142
1.0
143
1.0
 70
   688
 72
     0
 73
     1
 74
     5
  7

 75
    16
147
1.0
 76
     0
 77
     2
 78
   300
148
0.0
149
0.0
100
AcDbLayout
  1
Layout1
 70
     1
 71
     1
 10
-0.25
 20
-0.25
 11
10.75
 21
8.25
 12
0.0
 22
0.0
 32
0.0
 14
1.05
 24
0.8
 34
0.0
 15
9.45
 25
7.2
 35
0.0
146
0.0
 13
0.0
 23
0.0
 33
0.0
 16
1.0
 26
0.0
 36
0.0
 17
0.0
 27
1.0
 37
0.0
 76
     0
330
5376
1001
ACAD_PSEXT
1000
None
1000
None
1000
Not applicable
1000
The layout will not be plotted unless a new plotter configuration name is selected.
1070
     0
  0
LAYOUT
  5
5372
102
{ACAD_XDICTIONARY
360
5374
102
}
102
{ACAD_REACTORS
330
5373
102
}
330
5373
100
AcDbPlotSettings
  1

  2
none_device
  4
ANSI_A_(8.50_x_11.00_Inches)
  6

 40
6.35
 41
19.049999
 42
6.350006
 43
19.049988
 44
215.899994
 45
279.399994
 46
0.0
 47
0.0
 48
0.0
 49
0.0
140
0.0
141
0.0
142
1.0
143
2.584895
 70
 11952
 72
     0
 73
     1
 74
     0
  7

 75
     0
147
0.386863
 76
     0
 77
     2
 78
   300
148
0.0
149
0.0
100
AcDbLayout
  1
Model
 70
     1
 71
     0
 10
0.0
 20
0.0
 11
12.0
 21
9.0
 12
0.0
 22
0.0
 32
0.0
 14
0.0
 24
0.0
 34
0.0
 15
0.0
 25
0.0
 35
0.0
146
0.0
 13
0.0
 23
0.0
 33
0.0
 16
1.0
 26
0.0
 36
0.0
 17
0.0
 27
1.0
 37
0.0
 76
     0
330
535F
331
5389
  0
MATERIAL
  5
539C
102
{ACAD_XDICTIONARY
360
539D
102
}
102
{ACAD_REACTORS
330
5368
102
}
330
5368
100
AcDbMaterial
  1
ByBlock
 72
     0
 43
0.020833
 43
0.0
 43
0.0
 43
0.0
 43
0.0
 43
0.020833
 43
0.0
 43
0.0
 43
0.0
 43
0.0
 43
1.0
 43
0.0
 43
0.0
 43
0.0
 43
0.0
 43
1.0
 77
     0
 47
0.020833
 47
0.0
 47
0.0
 47
0.0
 47
0.0
 47
0.020833
 47
0.0
 47
0.0
 47
0.0
 47
0.0
 47
1.0
 47
0.0
 47
0.0
 47
0.0
 47
0.0
 47
1.0
171
     0
 49
0.020833
 49
0.0
 49
0.0
 49
0.0
 49
0.0
 49
0.020833
 49
0.0
 49
0.0
 49
0.0
 49
0.0
 49
1.0
 49
0.0
 49
0.0
 49
0.0
 49
0.0
 49
1.0
175
     0
142
0.020833
142
0.0
142
0.0
142
0.0
142
0.0
142
0.020833
142
0.0
142
0.0
142
0.0
142
0.0
142
1.0
142
0.0
142
0.0
142
0.0
142
0.0
142
1.0
179
     0
144
0.020833
144
0.0
144
0.0
144
0.0
144
0.0
144
0.020833
144
0.0
144
0.0
144
0.0
144
0.0
144
1.0
144
0.0
144
0.0
144
0.0
144
0.0
144
1.0
147
0.020833
147
0.0
147
0.0
147
0.0
147
0.0
147
0.020833
147
0.0
147
0.0
147
0.0
147
0.0
147
1.0
147
0.0
147
0.0
147
0.0
147
0.0
147
1.0
  0
MATERIAL
  5
5394
102
{ACAD_XDICTIONARY
360
5395
102
}
102
{ACAD_REACTORS
330
5368
102
}
330
5368
100
AcDbMaterial
  1
ByLayer
 72
     0
 43
0.020833
 43
0.0
 43
0.0
 43
0.0
 43
0.0
 43
0.020833
 43
0.0
 43
0.0
 43
0.0
 43
0.0
 43
1.0
 43
0.0
 43
0.0
 43
0.0
 43
0.0
 43
1.0
 77
     0
 47
0.020833
 47
0.0
 47
0.0
 47
0.0
 47
0.0
 47
0.020833
 47
0.0
 47
0.0
 47
0.0
 47
0.0
 47
1.0
 47
0.0
 47
0.0
 47
0.0
 47
0.0
 47
1.0
171
     0
 49
0.020833
 49
0.0
 49
0.0
 49
0.0
 49
0.0
 49
0.020833
 49
0.0
 49
0.0
 49
0.0
 49
0.0
 49
1.0
 49
0.0
 49
0.0
 49
0.0
 49
0.0
 49
1.0
175
     0
142
0.020833
142
0.0
142
0.0
142
0.0
142
0.0
142
0.020833
142
0.0
142
0.0
142
0.0
142
0.0
142
1.0
142
0.0
142
0.0
142
0.0
142
0.0
142
1.0
179
     0
144
0.020833
144
0.0
144
0.0
144
0.0
144
0.0
144
0.020833
144
0.0
144
0.0
144
0.0
144
0.0
144
1.0
144
0.0
144
0.0
144
0.0
144
0.0
144
1.0
147
0.020833
147
0.0
147
0.0
147
0.0
147
0.0
147
0.020833
147
0.0
147
0.0
147
0.0
147
0.0
147
1.0
147
0.0
147
0.0
147
0.0
147
0.0
147
1.0
  0
MATERIAL
  5
5367
102
{ACAD_XDICTIONARY
360
5369
102
}
102
{ACAD_REACTORS
330
5368
102
}
330
5368
100
AcDbMaterial
  1
Global
 72
     0
 43
0.020833
 43
0.0
 43
0.0
 43
0.0
 43
0.0
 43
0.020833
 43
0.0
 43
0.0
 43
0.0
 43
0.0
 43
1.0
 43
0.0
 43
0.0
 43
0.0
 43
0.0
 43
1.0
 77
     0
 47
0.020833
 47
0.0
 47
0.0
 47
0.0
 47
0.0
 47
0.020833
 47
0.0
 47
0.0
 47
0.0
 47
0.0
 47
1.0
 47
0.0
 47
0.0
 47
0.0
 47
0.0
 47
1.0
171
     0
 49
0.020833
 49
0.0
 49
0.0
 49
0.0
 49
0.0
 49
0.020833
 49
0.0
 49
0.0
 49
0.0
 49
0.0
 49
1.0
 49
0.0
 49
0.0
 49
0.0
 49
0.0
 49
1.0
175
     0
142
0.020833
142
0.0
142
0.0
142
0.0
142
0.0
142
0.020833
142
0.0
142
0.0
142
0.0
142
0.0
142
1.0
142
0.0
142
0.0
142
0.0
142
0.0
142
1.0
179
     0
144
0.020833
144
0.0
144
0.0
144
0.0
144
0.0
144
0.020833
144
0.0
144
0.0
144
0.0
144
0.0
144
1.0
144
0.0
144
0.0
144
0.0
144
0.0
144
1.0
147
0.020833
147
0.0
147
0.0
147
0.0
147
0.0
147
0.020833
147
0.0
147
0.0
147
0.0
147
0.0
147
1.0
147
0.0
147
0.0
147
0.0
147
0.0
147
1.0
  0
MLINESTYLE
  5
53A8
102
{ACAD_REACTORS
330
5392
102
}
330
5392
100
AcDbMlineStyle
  2
STANDARD
 70
     0
  3

 62
   256
 51
90.0
 52
90.0
 71
     2
 49
0.5
 62
   256
  6
BYLAYER
 49
-0.5
 62
   256
  6
BYLAYER
  0
ACDBPLACEHOLDER
  5
5364
102
{ACAD_REACTORS
330
5365
102
}
330
5365
  0
SCALE
  5
53AD
102
{ACAD_REACTORS
330
53A5
102
}
330
53A5
100
AcDbScale
 70
     0
300
1:1
140
1.0
141
1.0
290
     1
  0
SCALE
  5
53AE
102
{ACAD_REACTORS
330
53A5
102
}
330
53A5
100
AcDbScale
 70
     0
300
1:2
140
1.0
141
2.0
290
     0
  0
SCALE
  5
53AF
102
{ACAD_REACTORS
330
53A5
102
}
330
53A5
100
AcDbScale
 70
     0
300
1:4
140
1.0
141
4.0
290
     0
  0
SCALE
  5
53B0
102
{ACAD_REACTORS
330
53A5
102
}
330
53A5
100
AcDbScale
 70
     0
300
1:5
140
1.0
141
5.0
290
     0
  0
SCALE
  5
53B1
102
{ACAD_REACTORS
330
53A5
102
}
330
53A5
100
AcDbScale
 70
     0
300
1:8
140
1.0
141
8.0
290
     0
  0
SCALE
  5
53B2
102
{ACAD_REACTORS
330
53A5
102
}
330
53A5
100
AcDbScale
 70
     0
300
1:10
140
1.0
141
10.0
290
     0
  0
SCALE
  5
53B3
102
{ACAD_REACTORS
330
53A5
102
}
330
53A5
100
AcDbScale
 70
     0
300
1:16
140
1.0
141
16.0
290
     0
  0
SCALE
  5
53B4
102
{ACAD_REACTORS
330
53A5
102
}
330
53A5
100
AcDbScale
 70
     0
300
1:20
140
1.0
141
20.0
290
     0
  0
SCALE
  5
53B5
102
{ACAD_REACTORS
330
53A5
102
}
330
53A5
100
AcDbScale
 70
     0
300
1:30
140
1.0
141
30.0
290
     0
  0
SCALE
  5
53B6
102
{ACAD_REACTORS
330
53A5
102
}
330
53A5
100
AcDbScale
 70
     0
300
1:40
140
1.0
141
40.0
290
     0
  0
SCALE
  5
53B7
102
{ACAD_REACTORS
330
53A5
102
}
330
53A5
100
AcDbScale
 70
     0
300
1:50
140
1.0
141
50.0
290
     0
  0
SCALE
  5
53B8
102
{ACAD_REACTORS
330
53A5
102
}
330
53A5
100
AcDbScale
 70
     0
300
1:100
140
1.0
141
100.0
290
     0
  0
SCALE
  5
53B9
102
{ACAD_REACTORS
330
53A5
102
}
330
53A5
100
AcDbScale
 70
     0
300
2:1
140
2.0
141
1.0
290
     0
  0
SCALE
  5
53BA
102
{ACAD_REACTORS
330
53A5
102
}
330
53A5
100
AcDbScale
 70
     0
300
4:1
140
4.0
141
1.0
290
     0
  0
SCALE
  5
53BB
102
{ACAD_REACTORS
330
53A5
102
}
330
53A5
100
AcDbScale
 70
     0
300
8:1
140
8.0
141
1.0
290
     0
  0
SCALE
  5
53BC
102
{ACAD_REACTORS
330
53A5
102
}
330
53A5
100
AcDbScale
 70
     0
300
10:1
140
10.0
141
1.0
290
     0
  0
SCALE
  5
53BD
102
{ACAD_REACTORS
330
53A5
102
}
330
53A5
100
AcDbScale
 70
     0
300
100:1
140
100.0
141
1.0
290
     0
  0
SCALE
  5
53BE
102
{ACAD_REACTORS
330
53A5
102
}
330
53A5
100
AcDbScale
 70
     0
300
1/128" = 1'-0"
140
0.007813
141
12.0
290
     0
  0
SCALE
  5
53BF
102
{ACAD_REACTORS
330
53A5
102
}
330
53A5
100
AcDbScale
 70
     0
300
1/64" = 1'-0"
140
0.015625
141
12.0
290
     0
  0
SCALE
  5
53C0
102
{ACAD_REACTORS
330
53A5
102
}
330
53A5
100
AcDbScale
 70
     0
300
1/32" = 1'-0"
140
0.03125
141
12.0
290
     0
  0
SCALE
  5
53C1
102
{ACAD_REACTORS
330
53A5
102
}
330
53A5
100
AcDbScale
 70
     0
300
1/16" = 1'-0"
140
0.0625
141
12.0
290
     0
  0
SCALE
  5
53C2
102
{ACAD_REACTORS
330
53A5
102
}
330
53A5
100
AcDbScale
 70
     0
300
3/32" = 1'-0"
140
0.09375
141
12.0
290
     0
  0
SCALE
  5
53C3
102
{ACAD_REACTORS
330
53A5
102
}
330
53A5
100
AcDbScale
 70
     0
300
1/8" = 1'-0"
140
0.125
141
12.0
290
     0
  0
SCALE
  5
53C4
102
{ACAD_REACTORS
330
53A5
102
}
330
53A5
100
AcDbScale
 70
     0
300
3/16" = 1'-0"
140
0.1875
141
12.0
290
     0
  0
SCALE
  5
53C5
102
{ACAD_REACTORS
330
53A5
102
}
330
53A5
100
AcDbScale
 70
     0
300
1/4" = 1'-0"
140
0.25
141
12.0
290
     0
  0
SCALE
  5
53C6
102
{ACAD_REACTORS
330
53A5
102
}
330
53A5
100
AcDbScale
 70
     0
300
3/8" = 1'-0"
140
0.375
141
12.0
290
     0
  0
SCALE
  5
53C7
102
{ACAD_REACTORS
330
53A5
102
}
330
53A5
100
AcDbScale
 70
     0
300
1/2" = 1'-0"
140
0.5
141
12.0
290
     0
  0
SCALE
  5
53C8
102
{ACAD_REACTORS
330
53A5
102
}
330
53A5
100
AcDbScale
 70
     0
300
3/4" = 1'-0"
140
0.75
141
12.0
290
     0
  0
SCALE
  5
53C9
102
{ACAD_REACTORS
330
53A5
102
}
330
53A5
100
AcDbScale
 70
     0
300
1" = 1'-0"
140
1.0
141
12.0
290
     0
  0
SCALE
  5
53CA
102
{ACAD_REACTORS
330
53A5
102
}
330
53A5
100
AcDbScale
 70
     0
300
1-1/2" = 1'-0"
140
1.5
141
12.0
290
     0
  0
SCALE
  5
53CB
102
{ACAD_REACTORS
330
53A5
102
}
330
53A5
100
AcDbScale
 70
     0
300
3" = 1'-0"
140
3.0
141
12.0
290
     0
  0
SCALE
  5
53CC
102
{ACAD_REACTORS
330
53A5
102
}
330
53A5
100
AcDbScale
 70
     0
300
6" = 1'-0"
140
6.0
141
12.0
290
     0
  0
SCALE
  5
53CD
102
{ACAD_REACTORS
330
53A5
102
}
330
53A5
100
AcDbScale
 70
     0
300
1'-0" = 1'-0"
140
12.0
141
12.0
290
     0
  0
TABLESTYLE
  5
53A9
102
{ACAD_XDICTIONARY
360
53AA
102
}
102
{ACAD_REACTORS
330
53A6
102
}
330
53A6
100
AcDbTableStyle
280
     0
  3
Standard
 70
     0
 71
     0
 40
0.06
 41
0.06
280
     0
281
     0
  7
Standard
140
0.18
170
     2
 62
     0
 63
     7
283
     0
 90
        4
 91
        0
  1

274
    -2
284
     1
 64
     0
275
    -2
285
     1
 65
     0
276
    -2
286
     1
 66
     0
277
    -2
287
     1
 67
     0
278
    -2
288
     1
 68
     0
279
    -2
289
     1
 69
     0
  7
Standard
140
0.25
170
     5
 62
     0
 63
     7
283
     0
 90
        4
 91
        0
  1

274
    -2
284
     1
 64
     0
275
    -2
285
     1
 65
     0
276
    -2
286
     1
 66
     0
277
    -2
287
     1
 67
     0
278
    -2
288
     1
 68
     0
279
    -2
289
     1
 69
     0
  7
Standard
140
0.18
170
     5
 62
     0
 63
     7
283
     0
 90
        4
 91
        0
  1

274
    -2
284
     1
 64
     0
275
    -2
285
     1
 65
     0
276
    -2
286
     1
 66
     0
277
    -2
287
     1
 67
     0
278
    -2
288
     1
 68
     0
279
    -2
289
     1
 69
     0
  0
VISUALSTYLE
  5
538A
102
{ACAD_REACTORS
330
538B
102
}
330
538B
100
AcDbVisualStyle
  2
2dWireframe
 70
     4
177
     3
291
     0
 70
    58
 90
        0
176
     1
 90
        2
176
     1
 90
        0
176
     1
 90
        0
176
     1
 40
0.6
176
     1
 40
30.0
176
     1
 62
     7
420
 16777215
176
     1
 90
        1
176
     1
 90
        4
176
     1
 62
     7
176
     1
 62
   257
176
     1
 90
        1
176
     1
 90
        1
176
     1
 40
1.0
176
     1
 90
        0
176
     1
 62
   257
176
     1
 40
1.0
176
     1
 90
        1
176
     1
 90
        6
176
     1
 90
        2
176
     1
 62
     7
176
     1
 90
        5
176
     1
 90
        0
176
     1
 90
        0
176
     1
290
     0
176
     1
 90
        1
176
     1
 40
0.0
176
     1
 90
        0
176
     1
290
     1
176
     1
290
     1
176
     1
290
     0
176
     1
290
     0
176
     1
290
     0
176
     1
290
     0
176
     1
290
     0
176
     1
290
     0
176
     1
290
     0
176
     1
 90
       50
176
     1
 40
0.0
176
     1
 40
1.0
176
     1
 90
        0
176
     1
 62
    18
420
        0
176
     1
 90
       50
176
     1
 90
        3
176
     1
 62
     5
420
      255
176
     1
290
     0
176
     1
 90
       50
176
     1
 90
       50
176
     1
 90
       50
176
     1
290
     0
176
     1
 90
       50
176
     1
 62
   256
176
     0
 40
1.0
176
     0
 90
        2
176
     1
  1
strokes_ogs.tif
176
     1
290
     0
176
     1
 40
1.0
176
     1
 40
1.0
176
     1
  0
VISUALSTYLE
  5
53AB
102
{ACAD_REACTORS
330
538B
102
}
330
538B
100
AcDbVisualStyle
  2
Realistic
 70
     8
177
     3
291
     0
 70
    58
 90
        2
176
     1
 90
        2
176
     1
 90
        0
176
     1
 90
        0
176
     1
 40
0.6
176
     1
 40
30.0
176
     1
 62
     7
420
 16777215
176
     1
 90
        1
176
     1
 90
        0
176
     1
 62
     7
176
     1
 62
   257
176
     1
 90
        1
176
     1
 90
        1
176
     1
 40
1.0
176
     1
 90
        8
176
     1
 62
     8
420
  7895160
176
     1
 40
1.0
176
     1
 90
        1
176
     1
 90
        6
176
     1
 90
        2
176
     1
 62
     7
176
     1
 90
        5
176
     1
 90
        0
176
     1
 90
        0
176
     1
290
     0
176
     1
 90
       13
176
     1
 40
0.0
176
     1
 90
        0
176
     1
290
     0
176
     1
290
     1
176
     1
290
     1
176
     1
290
     0
176
     1
290
     0
176
     1
290
     0
176
     1
290
     0
176
     1
290
     0
176
     1
290
     0
176
     1
 90
       50
176
     1
 40
0.0
176
     1
 40
1.0
176
     1
 90
        0
176
     1
 62
    18
420
        0
176
     1
 90
       50
176
     1
 90
        3
176
     1
 62
     5
420
      255
176
     1
290
     0
176
     1
 90
       50
176
     1
 90
       50
176
     1
 90
       50
176
     1
290
     0
176
     1
 90
       50
176
     1
 62
   256
176
     0
 40
1.0
176
     0
 90
        2
176
     1
  1
strokes_ogs.tif
176
     1
290
     0
176
     1
 40
1.0
176
     1
 40
1.0
176
     1
  0
VISUALSTYLE
  5
53AC
102
{ACAD_REACTORS
330
538B
102
}
330
538B
100
AcDbVisualStyle
  2
Wireframe
 70
     5
177
     3
291
     0
 70
    58
 90
        0
176
     1
 90
        2
176
     1
 90
        0
176
     1
 90
        0
176
     1
 40
0.6
176
     1
 40
30.0
176
     1
 62
     7
420
 16777215
176
     1
 90
        1
176
     1
 90
        4
176
     1
 62
     7
176
     1
 62
   257
176
     1
 90
        1
176
     1
 90
        1
176
     1
 40
1.0
176
     1
 90
        0
176
     1
 62
   257
176
     1
 40
1.0
176
     1
 90
        1
176
     1
 90
        6
176
     1
 90
        2
176
     1
 62
     7
176
     1
 90
        3
176
     1
 90
        0
176
     1
 90
        0
176
     1
290
     0
176
     1
 90
        1
176
     1
 40
0.0
176
     1
 90
        0
176
     1
290
     0
176
     1
290
     1
176
     1
290
     1
176
     1
290
     0
176
     1
290
     0
176
     1
290
     0
176
     1
290
     0
176
     1
290
     0
176
     1
290
     0
176
     1
 90
       50
176
     1
 40
0.0
176
     1
 40
1.0
176
     1
 90
        0
176
     1
 62
    18
420
        0
176
     1
 90
       50
176
     1
 90
        3
176
     1
 62
     5
420
      255
176
     1
290
     0
176
     1
 90
       50
176
     1
 90
       50
176
     1
 90
       50
176
     1
290
     0
176
     1
 90
       50
176
     1
 62
   256
176
     0
 40
1.0
176
     0
 90
        2
176
     1
  1
strokes_ogs.tif
176
     1
290
     0
176
     1
 40
1.0
176
     1
 40
1.0
176
     1
  0
DICTIONARYVAR
  5
53FB
102
{ACAD_REACTORS
330
53F5
102
}
330
53F5
100
DictionaryVariables
280
     0
  1
1:1
  0
DICTIONARYVAR
  5
53F7
102
{ACAD_REACTORS
330
53F5
102
}
330
53F5
100
DictionaryVariables
280
     0
  1
STANDARD
  0
DICTIONARYVAR
  5
53F6
102
{ACAD_REACTORS
330
53F5
102
}
330
53F5
100
DictionaryVariables
280
     0
  1
STANDARD
  0
DICTIONARYVAR
  5
53F8
102
{ACAD_REACTORS
330
53F5
102
}
330
53F5
100
DictionaryVariables
280
     0
  1

  0
DICTIONARYVAR
  5
53F9
102
{ACAD_REACTORS
330
53F5
102
}
330
53F5
100
DictionaryVariables
280
     0
  1

  0
DICTIONARYVAR
  5
53FC
102
{ACAD_REACTORS
330
53F5
102
}
330
53F5
100
DictionaryVariables
280
     0
  1
1
  0
DICTIONARYVAR
  5
53FD
102
{ACAD_REACTORS
330
53F5
102
}
330
53F5
100
DictionaryVariables
280
     0
  1
15
  0
DICTIONARYVAR
  5
53FA
102
{ACAD_REACTORS
330
53F5
102
}
330
53F5
100
DictionaryVariables
280
     0
  1
0
  0
XRECORD
  5
53D4
102
{ACAD_REACTORS
330
53D2
102
}
330
53D2
100
AcDbXrecord
280
     1
  1
Alle Ebenen
  1
*
  1
*
  1
*
 70
     0
  1
*
  1
*
  0
XRECORD
  5
53DC
102
{ACAD_REACTORS
330
53D2
102
}
330
53D2
100
AcDbXrecord
280
     1
  1
alte TAZ Ebenen
  1
*
  1
*
  1
*
 70
     0
  1
*
  1
*
  0
XRECORD
  5
53D6
102
{ACAD_REACTORS
330
53D2
102
}
330
53D2
100
AcDbXrecord
280
     1
  1
best Werke
  1
*
  1
*
  1
*
 70
     0
  1
*
  1
*
  0
XRECORD
  5
53E0
102
{ACAD_REACTORS
330
53D2
102
}
330
53D2
100
AcDbXrecord
280
     1
  1
neue TAZ Ebenen
  1
*
  1
*
  1
*
 70
     0
  1
*
  1
*
  0
XRECORD
  5
53DA
102
{ACAD_REACTORS
330
53D2
102
}
330
53D2
100
AcDbXrecord
280
     1
  1
Projekt Füllflächen
  1
*
  1
*
  1
*
 70
     0
  1
*
  1
*
  0
XRECORD
  5
53D8
102
{ACAD_REACTORS
330
53D2
102
}
330
53D2
100
AcDbXrecord
280
     1
  1
Projekt Werke
  1
*
  1
*
  1
*
 70
     0
  1
*
  1
*
  0
XRECORD
  5
53DE
102
{ACAD_REACTORS
330
53D2
102
}
330
53D2
100
AcDbXrecord
280
     1
  1
Signalisation
  1
*
  1
*
  1
*
 70
     0
  1
*
  1
*
  0
XRECORD
  5
53D5
102
{ACAD_REACTORS
330
53D3
102
}
330
53D3
100
AcDbXrecord
280
     1
  1
AcLyLayerFilter
 90
        1
300
Alle Ebenen
301
NAME=="*"
  0
XRECORD
  5
53D7
102
{ACAD_REACTORS
330
53D3
102
}
330
53D3
100
AcDbXrecord
280
     1
  1
AcLyLayerFilter
 90
        1
300
best Werke
301
NAME=="*"
  0
XRECORD
  5
53D9
102
{ACAD_REACTORS
330
53D3
102
}
330
53D3
100
AcDbXrecord
280
     1
  1
AcLyLayerFilter
 90
        1
300
Projekt Werke
301
NAME=="*"
  0
XRECORD
  5
53DB
102
{ACAD_REACTORS
330
53D3
102
}
330
53D3
100
AcDbXrecord
280
     1
  1
AcLyLayerFilter
 90
        1
300
Projekt Füllflächen
301
NAME=="*"
  0
XRECORD
  5
53DD
102
{ACAD_REACTORS
330
53D3
102
}
330
53D3
100
AcDbXrecord
280
     1
  1
AcLyLayerFilter
 90
        1
300
alte TAZ Ebenen
301
NAME=="*"
  0
XRECORD
  5
53DF
102
{ACAD_REACTORS
330
53D3
102
}
330
53D3
100
AcDbXrecord
280
     1
  1
AcLyLayerFilter
 90
        1
300
Signalisation
301
NAME=="*"
  0
XRECORD
  5
53E1
102
{ACAD_REACTORS
330
53D3
102
}
330
53D3
100
AcDbXrecord
280
     1
  1
AcLyLayerFilter
 90
        1
300
neue TAZ Ebenen
301
NAME=="*"
  0
DICTIONARY
  5
537A
330
5379
100
AcDbDictionary
280
     1
281
     1
  0
DICTIONARY
  5
5374
330
5372
100
AcDbDictionary
280
     1
281
     1
  0
DICTIONARY
  5
539D
330
539C
100
AcDbDictionary
280
     1
281
     1
  3
BUMPTILE
360
539E
  3
DIFFUSETILE
360
539F
  3
OPACITYTILE
360
53A0
  3
REFLECTIONTILE
360
53A1
  3
REFRACTIONTILE
360
53A2
  3
SPECULARTILE
360
53A3
  0
DICTIONARY
  5
5395
330
5394
100
AcDbDictionary
280
     1
281
     1
  3
BUMPTILE
360
5396
  3
DIFFUSETILE
360
5397
  3
OPACITYTILE
360
5398
  3
REFLECTIONTILE
360
5399
  3
REFRACTIONTILE
360
539A
  3
SPECULARTILE
360
539B
  0
DICTIONARY
  5
5369
330
5367
100
AcDbDictionary
280
     1
281
     1
  3
BUMPTILE
360
536A
  3
DIFFUSETILE
360
536B
  3
OPACITYTILE
360
536C
  3
REFLECTIONTILE
360
536D
  3
REFRACTIONTILE
360
536E
  3
SPECULARTILE
360
536F
  0
DICTIONARY
  5
53AA
330
53A9
100
AcDbDictionary
280
     1
281
     1
  3
ACAD_ROUNDTRIP_2008_TABLESTYLE_CELLSTYLEMAP
360
5400
  0
XRECORD
  5
539E
102
{ACAD_REACTORS
330
539D
102
}
330
539D
100
AcDbXrecord
280
     1
270
     1
271
     1
  0
XRECORD
  5
539F
102
{ACAD_REACTORS
330
539D
102
}
330
539D
100
AcDbXrecord
280
     1
270
     1
271
     1
  0
XRECORD
  5
53A0
102
{ACAD_REACTORS
330
539D
102
}
330
539D
100
AcDbXrecord
280
     1
270
     1
271
     1
  0
XRECORD
  5
53A1
102
{ACAD_REACTORS
330
539D
102
}
330
539D
100
AcDbXrecord
280
     1
270
     1
271
     1
  0
XRECORD
  5
53A2
102
{ACAD_REACTORS
330
539D
102
}
330
539D
100
AcDbXrecord
280
     1
270
     1
271
     1
  0
XRECORD
  5
53A3
102
{ACAD_REACTORS
330
539D
102
}
330
539D
100
AcDbXrecord
280
     1
270
     1
271
     1
  0
XRECORD
  5
5396
102
{ACAD_REACTORS
330
5395
102
}
330
5395
100
AcDbXrecord
280
     1
270
     1
271
     1
  0
XRECORD
  5
5397
102
{ACAD_REACTORS
330
5395
102
}
330
5395
100
AcDbXrecord
280
     1
270
     1
271
     1
  0
XRECORD
  5
5398
102
{ACAD_REACTORS
330
5395
102
}
330
5395
100
AcDbXrecord
280
     1
270
     1
271
     1
  0
XRECORD
  5
5399
102
{ACAD_REACTORS
330
5395
102
}
330
5395
100
AcDbXrecord
280
     1
270
     1
271
     1
  0
XRECORD
  5
539A
102
{ACAD_REACTORS
330
5395
102
}
330
5395
100
AcDbXrecord
280
     1
270
     1
271
     1
  0
XRECORD
  5
539B
102
{ACAD_REACTORS
330
5395
102
}
330
5395
100
AcDbXrecord
280
     1
270
     1
271
     1
  0
XRECORD
  5
536A
102
{ACAD_REACTORS
330
5369
102
}
330
5369
100
AcDbXrecord
280
     1
270
     1
271
     1
  0
XRECORD
  5
536B
102
{ACAD_REACTORS
330
5369
102
}
330
5369
100
AcDbXrecord
280
     1
270
     1
271
     1
  0
XRECORD
  5
536C
102
{ACAD_REACTORS
330
5369
102
}
330
5369
100
AcDbXrecord
280
     1
270
     1
271
     1
  0
XRECORD
  5
536D
102
{ACAD_REACTORS
330
5369
102
}
330
5369
100
AcDbXrecord
280
     1
270
     1
271
     1
  0
XRECORD
  5
536E
102
{ACAD_REACTORS
330
5369
102
}
330
5369
100
AcDbXrecord
280
     1
270
     1
271
     1
  0
XRECORD
  5
536F
102
{ACAD_REACTORS
330
5369
102
}
330
5369
100
AcDbXrecord
280
     1
270
     1
271
     1
  0
CELLSTYLEMAP
  5
5400
102
{ACAD_REACTORS
330
53AA
102
}
330
53AA
100
AcDbCellStyleMap
 90
        3
300
CELLSTYLE
  1
TABLEFORMAT_BEGIN
 90
        5
170
     1
 91
        0
 92
    32768
 62
   257
 93
        1
300
CONTENTFORMAT
  1
CONTENTFORMAT_BEGIN
 90
        0
 91
        0
 92
        4
 93
        0
300

 40
0.0
140
1.0
 94
        5
 62
     0
340
5381
144
0.25
309
CONTENTFORMAT_END
171
     0
 94
        6
 95
        1
302
GRIDFORMAT
  1
GRIDFORMAT_BEGIN
 90
        0
 91
        1
 62
     0
 92
       -2
340
0
 93
        0
 40
0.045
309
GRIDFORMAT_END
 95
        2
302
GRIDFORMAT
  1
GRIDFORMAT_BEGIN
 90
        0
 91
        1
 62
     0
 92
       -2
340
0
 93
        0
 40
0.045
309
GRIDFORMAT_END
 95
        4
302
GRIDFORMAT
  1
GRIDFORMAT_BEGIN
 90
        0
 91
        1
 62
     0
 92
       -2
340
0
 93
        0
 40
0.045
309
GRIDFORMAT_END
 95
        8
302
GRIDFORMAT
  1
GRIDFORMAT_BEGIN
 90
        0
 91
        1
 62
     0
 92
       -2
340
0
 93
        0
 40
0.045
309
GRIDFORMAT_END
 95
       16
302
GRIDFORMAT
  1
GRIDFORMAT_BEGIN
 90
        0
 91
        1
 62
     0
 92
       -2
340
0
 93
        0
 40
0.045
309
GRIDFORMAT_END
 95
       32
302
GRIDFORMAT
  1
GRIDFORMAT_BEGIN
 90
        0
 91
        1
 62
     0
 92
       -2
340
0
 93
        0
 40
0.045
309
GRIDFORMAT_END
309
TABLEFORMAT_END
  1
CELLSTYLE_BEGIN
 90
        1
 91
        1
300
_TITLE
309
CELLSTYLE_END
300
CELLSTYLE
  1
TABLEFORMAT_BEGIN
 90
        5
170
     1
 91
        0
 92
        0
 62
   257
 93
        1
300
CONTENTFORMAT
  1
CONTENTFORMAT_BEGIN
 90
        0
 91
        0
 92
        4
 93
        0
300

 40
0.0
140
1.0
 94
        5
 62
     0
340
5381
144
0.18
309
CONTENTFORMAT_END
171
     0
 94
        6
 95
        1
302
GRIDFORMAT
  1
GRIDFORMAT_BEGIN
 90
        0
 91
        1
 62
     0
 92
       -2
340
0
 93
        0
 40
0.045
309
GRIDFORMAT_END
 95
        2
302
GRIDFORMAT
  1
GRIDFORMAT_BEGIN
 90
        0
 91
        1
 62
     0
 92
       -2
340
0
 93
        0
 40
0.045
309
GRIDFORMAT_END
 95
        4
302
GRIDFORMAT
  1
GRIDFORMAT_BEGIN
 90
        0
 91
        1
 62
     0
 92
       -2
340
0
 93
        0
 40
0.045
309
GRIDFORMAT_END
 95
        8
302
GRIDFORMAT
  1
GRIDFORMAT_BEGIN
 90
        0
 91
        1
 62
     0
 92
       -2
340
0
 93
        0
 40
0.045
309
GRIDFORMAT_END
 95
       16
302
GRIDFORMAT
  1
GRIDFORMAT_BEGIN
 90
        0
 91
        1
 62
     0
 92
       -2
340
0
 93
        0
 40
0.045
309
GRIDFORMAT_END
 95
       32
302
GRIDFORMAT
  1
GRIDFORMAT_BEGIN
 90
        0
 91
        1
 62
     0
 92
       -2
340
0
 93
        0
 40
0.045
309
GRIDFORMAT_END
309
TABLEFORMAT_END
  1
CELLSTYLE_BEGIN
 90
        2
 91
        1
300
_HEADER
309
CELLSTYLE_END
300
CELLSTYLE
  1
TABLEFORMAT_BEGIN
 90
        5
170
     1
 91
        0
 92
        0
 62
   257
 93
        1
300
CONTENTFORMAT
  1
CONTENTFORMAT_BEGIN
 90
        0
 91
        0
 92
        4
 93
        0
300

 40
0.0
140
1.0
 94
        2
 62
     0
340
5381
144
0.18
309
CONTENTFORMAT_END
171
     0
 94
        6
 95
        1
302
GRIDFORMAT
  1
GRIDFORMAT_BEGIN
 90
        0
 91
        1
 62
     0
 92
       -2
340
0
 93
        0
 40
0.045
309
GRIDFORMAT_END
 95
        2
302
GRIDFORMAT
  1
GRIDFORMAT_BEGIN
 90
        0
 91
        1
 62
     0
 92
       -2
340
0
 93
        0
 40
0.045
309
GRIDFORMAT_END
 95
        4
302
GRIDFORMAT
  1
GRIDFORMAT_BEGIN
 90
        0
 91
        1
 62
     0
 92
       -2
340
0
 93
        0
 40
0.045
309
GRIDFORMAT_END
 95
        8
302
GRIDFORMAT
  1
GRIDFORMAT_BEGIN
 90
        0
 91
        1
 62
     0
 92
       -2
340
0
 93
        0
 40
0.045
309
GRIDFORMAT_END
 95
       16
302
GRIDFORMAT
  1
GRIDFORMAT_BEGIN
 90
        0
 91
        1
 62
     0
 92
       -2
340
0
 93
        0
 40
0.045
309
GRIDFORMAT_END
 95
       32
302
GRIDFORMAT
  1
GRIDFORMAT_BEGIN
 90
        0
 91
        1
 62
     0
 92
       -2
340
0
 93
        0
 40
0.045
309
GRIDFORMAT_END
309
TABLEFORMAT_END
  1
CELLSTYLE_BEGIN
 90
        3
 91
        2
300
_DATA
309
CELLSTYLE_END
  0
ENDSEC
  0
SECTION
  2
ACDSDATA
 70
     2
 71
     8
  0
ACDSSCHEMA
 90
        0
  1
AcDb_Thumbnail_Schema
  2
AcDbDs::ID
280
    10
 91
        8
  2
Thumbnail_Data
280
    15
 91
        0
101
ACDSRECORD
 95
        0
 90
        1
  2
AcDbDs::TreatedAsObjectData
280
     1
291
     1
101
ACDSRECORD
 95
        0
 90
        2
  2
AcDbDs::Legacy
280
     1
291
     1
101
ACDSRECORD
  1
AcDbDs::ID
 90
        3
  2
AcDs:Indexable
280
     1
291
     1
101
ACDSRECORD
  1
AcDbDs::ID
 90
        4
  2
AcDbDs::HandleAttribute
280
     7
282
     1
  0
ACDSSCHEMA
 90
        1
  1
AcDbDs::TreatedAsObjectDataSchema
  2
AcDbDs::TreatedAsObjectData
280
     1
 91
        0
  0
ACDSSCHEMA
 90
        2
  1
AcDbDs::LegacySchema
  2
AcDbDs::Legacy
280
     1
 91
        0
  0
ACDSSCHEMA
 90
        3
  1
AcDbDs::IndexedPropertySchema
  2
AcDs:Indexable
280
     1
 91
        0
  0
ACDSSCHEMA
 90
        4
  1
AcDbDs::HandleAttributeSchema
  2
AcDbDs::HandleAttribute
280
     7
 91
        1
284
     1
  0
ACDSRECORD
 90
        0
  2
AcDbDs::ID
280
    10
320
5379
  2
Thumbnail_Data
280
    15
 94
     1183
310
89504E470D0A1A0A0000000D4948445200000100000000C508030000008CFEDCE700000300504C5445FFFFFF000000FFFFFF0000000000000000000000000000000000000000000000000000330000660000990000CC0000FF0033000033330033660033990033CC0033FF0066000066330066660066990066CC0066FF0099
310
000099330099660099990099CC0099FF00CC0000CC3300CC6600CC9900CCCC00CCFF00FF0000FF3300FF6600FF9900FFCC00FFFF3300003300333300663300993300CC3300FF3333003333333333663333993333CC3333FF3366003366333366663366993366CC3366FF3399003399333399663399993399CC3399FF33CC00
310
33CC3333CC6633CC9933CCCC33CCFF33FF0033FF3333FF6633FF9933FFCC33FFFF6600006600336600666600996600CC6600FF6633006633336633666633996633CC6633FF6666006666336666666666996666CC6666FF6699006699336699666699996699CC6699FF66CC0066CC3366CC6666CC9966CCCC66CCFF66FF0066
310
FF3366FF6666FF9966FFCC66FFFF9900009900339900669900999900CC9900FF9933009933339933669933999933CC9933FF9966009966339966669966999966CC9966FF9999009999339999669999999999CC9999FF99CC0099CC3399CC6699CC9999CCCC99CCFF99FF0099FF3399FF6699FF9999FFCC99FFFFCC0000CC00
310
33CC0066CC0099CC00CCCC00FFCC3300CC3333CC3366CC3399CC33CCCC33FFCC6600CC6633CC6666CC6699CC66CCCC66FFCC9900CC9933CC9966CC9999CC99CCCC99FFCCCC00CCCC33CCCC66CCCC99CCCCCCCCCCFFCCFF00CCFF33CCFF66CCFF99CCFFCCCCFFFFFF0000FF0033FF0066FF0099FF00CCFF00FFFF3300FF3333
310
FF3366FF3399FF33CCFF33FFFF6600FF6633FF6666FF6699FF66CCFF66FFFF9900FF9933FF9966FF9999FF99CCFF99FFFFCC00FFCC33FFCC66FFCC99FFCCCCFFCCFFFFFF00FFFF33FFFF66FFFF99FFFFCCFFFFFF0000000D0D0D1A1A1A2828283535354343435050505D5D5D6B6B6B787878868686939393A1A1A1AEAEAEBB
310
BBBBC9C9C9D6D6D6E4E4E4F1F1F1FFFFFF000000000000000000000000000000000000000000000000000000000000790CAC0F0000015A4944415478DAEDD8410A8340100440FFFFCCF9C09EE61E104224896014844D579F64F420A587DE592A3A632CD5C101100F500500C0F36ACDF6D636BFCEEBAEF9E9177D0788FBF600
310
000000000000004D1000000000000000100F50FB4F4C9E8B5578FAFF0300000000000000000000000000000000B00BD069000D0000000000000000A009020000000000000000000000000000000052013A0DA001000000000000000000A8C2000000000000000000000000000000402A40FC420400000000000000002016C0
310
5900000000000000000000000000000000C803885F88000000000000000000C402380B0000000000000000000000000000000000E2003A0DA0010000000000000000344100000000000000000000000000000000C0E7C660F21C04080D0000000000000000C01F54DE73151900000000000000D0AFCDCFB6227CDDAB1C9CD7
310
5DF3D32FAA0902000000C00A109E658C110DF0000E6CC6FBCCF8EC2E0000000049454E44AE426082
  0
ACDSRECORD
 90
        0
  2
AcDbDs::ID
280
    10
320
5372
  2
Thumbnail_Data
280
    15
 94
     1017
310
89504E470D0A1A0A0000000D4948445200000100000000890803000000F46416F000000300504C5445FEFCF0000000FFFFFF0000000000000000000000000000000000000000000000000000330000660000990000CC0000FF0033000033330033660033990033CC0033FF0066000066330066660066990066CC0066FF0099
310
000099330099660099990099CC0099FF00CC0000CC3300CC6600CC9900CCCC00CCFF00FF0000FF3300FF6600FF9900FFCC00FFFF3300003300333300663300993300CC3300FF3333003333333333663333993333CC3333FF3366003366333366663366993366CC3366FF3399003399333399663399993399CC3399FF33CC00
310
33CC3333CC6633CC9933CCCC33CCFF33FF0033FF3333FF6633FF9933FFCC33FFFF6600006600336600666600996600CC6600FF6633006633336633666633996633CC6633FF6666006666336666666666996666CC6666FF6699006699336699666699996699CC6699FF66CC0066CC3366CC6666CC9966CCCC66CCFF66FF0066
310
FF3366FF6666FF9966FFCC66FFFF9900009900339900669900999900CC9900FF9933009933339933669933999933CC9933FF9966009966339966669966999966CC9966FF9999009999339999669999999999CC9999FF99CC0099CC3399CC6699CC9999CCCC99CCFF99FF0099FF3399FF6699FF9999FFCC99FFFFCC0000CC00
310
33CC0066CC0099CC00CCCC00FFCC3300CC3333CC3366CC3399CC33CCCC33FFCC6600CC6633CC6666CC6699CC66CCCC66FFCC9900CC9933CC9966CC9999CC99CCCC99FFCCCC00CCCC33CCCC66CCCC99CCCCCCCCCCFFCCFF00CCFF33CCFF66CCFF99CCFFCCCCFFFFFF0000FF0033FF0066FF0099FF00CCFF00FFFF3300FF3333
310
FF3366FF3399FF33CCFF33FFFF6600FF6633FF6666FF6699FF66CCFF66FFFF9900FF9933FF9966FF9999FF99CCFF99FFFFCC00FFCC33FFCC66FFCC99FFCCCCFFCCFFFFFF00FFFF33FFFF66FFFF99FFFFCCFFFFFF0000000D0D0D1A1A1A2828283535354343435050505D5D5D6B6B6B787878868686939393A1A1A1AEAEAEBB
310
BBBBC9C9C9D6D6D6E4E4E4F1F1F1FFFFFF0000000000000000000000000000000000000000000000000000000000007C77BAA7000000B44944415478DAEDD0310100000C0220FBB7B48931760C22903E1701020408102040800001020408102040800001020408102040800001020408102040800001020408102040800001
310
020408102040800001020408102040800001020408102040800001020408102040800001020408102040800001020408102040800001020408102040800001020408102040800001020408102040800001020408102040800001020408102040800001020408102040C099016B33700943E05F3C0000000049454E44AE4260
310
82
  0
ENDSEC
  0
EOF
